Güzel sözler | Fıkra | Hikaye | Şiir - Şair| Şarkı sözleri | Türküler | Sohbet odaları | Rüya | Sağlık | Biyografi | islam | Güzeller | Paylaş


Canim.net
Akorlar
Akor Ekle
Şarkı sözleri
Yabancı şarkı sözleri
Çeviriler
Türkü
A  B  C  Ç  D  E  F  G  Ğ  H  I  İ  J  K  L  M  N  O  Ö  P  R  S  Ş  T  U  Ü  V  Y  Z 



Junkyrad - Nirvana



*1 *1 E5 vvv vv v vvv vv
e --|--|-----------------|---0--------0-----|---0--------0-----|
B --|--|-----------------|-0---0----0---0---|-0---0----0---0---|
G --|--|-----------------|------------------|------------------|
D --|--|-----------------|2------222------22|2------222------22|
A --|--|------------2&10~|2------222------22|2------222------22|
E --|--|-----------------|0------000------00|0------000------00|
drums play a bar then
with the bass 2 more


v vvv vv v vvv vv v vvv vv
e |---0--------0-----|---0--------0-----|---0--------0-----|
B |-0---0----0---0---|-0---0----0---0---|-0---0----0---0---|
G |------------------|------------------|------------------|
D |2------222------22|2------222------22|2------222------22|
A |2------222------22|2------222------22|2------222------22|
E |0------000------00|0------000------00|0------000------00|
Im not...


v vvv vv v vvv vv v vvv vv
e |---0--------0-----|---0--------0-----|---0--------0-----|
B |-0---0----0---0---|-0---0----0---0---|-0---0----0---0---|
G |------------------|------------------|------------------|
D |2------222------22|2------222------22|2------222------22|
A |2------222------22|2------222------22|2------222------22|
E |0------000------00|0------000------00|0------000------00|
You may ... Im not ... You may ...


v vvv vv v vvv vv v vvv vv
e |---0--------0-----|---0--------0-----|---0--------0-----|
B |-0---0----0---0---|-0---0----0---0---|-0---0----0---0---|
G |------------------|------------------|------------------|
D |2------222------22|2------222------22|2------222------22|
A |2------222------22|2------222------22|2------222------22|
E |0------000------00|0------000------00|0------000------00|
Im not ... You may ... Im not ...

G5 F#5 G5 F#5 G5 F#5 G5 F#5 G5
v vvv v^ v v v v^v v v v^ v v v v^v v v v^
e |---0--------0-----|------------------|------------------|
B |-0---0----0---0---|------------------|------------------|
G |------------------|------------------|------------------|
D |2------222------44|4--3-3-444--3-3-44|4--3-3-444--3-3-44|
A |2------222------44|4--3-3-444--3-3-44|4--3-3-444--3-3-44|
E |0------000------22|2--1-1-222--1-1-22|2--1-1-222--1-1-22|
You may ... Only... Only... Only... Only... Onl

F#5 G5 F#5 G5 F#5 G5 F#5 E5
v v v v^v v v v^ v v v v^v v v vv v vvv vv
e |------------------|------------------|---0--------0-----|
B |------------------|------------------|-0---0----0---0---|
G |------------------|------------------|------------------|
D |4--3-3-444--3-3-44|4--3-3-444--3-3-22|2------222------22|
A |4--3-3-444--3-3-44|4--3-3-444--3-3-22|2------222------22|
E |2--1-1-222--1-1-22|2--1-1-222--1-1-00|0------000------00|
y... Only... Only... Only... got

v vvv vv v vvv vv v vvv vv
e |---0--------0-----|---0--------0-----|---0--------0-----|
B |-0---0----0---0---|-0---0----0---0---|-0---0----0---0---|
G |------------------|------------------|------------------|
D |2------222------22|2------222------22|2------222------22|
A |2------222------22|2------222------22|2------222------22|
E |0------000------00|0------000------00|0------000------00|
Im not ... You may ...

v vvv vv v vvv vv v vvv vv
e |---0--------0-----|---0--------0-----|---0--------0-----|
B |-0---0----0---0---|-0---0----0---0---|-0---0----0---0---|
G |------------------|------------------|------------------|
D |2------222------22|2------222------22|2------222------22|
A |2------222------22|2------222------22|2------222------22|
E |0------000------00|0------000------00|0------000------00|
Im not ... You may ... Im not ...
G5
v vvv vv v vvv vv v vvv v^
e |---0--------0-----|---0--------0-----|---0--------0-----|
B |-0---0----0---0---|-0---0----0---0---|-0---0----0---0---|
G |------------------|------------------|------------------|
D |2------222------22|2------222------22|2------222------44|
A |2------222------22|2------222------22|2------222------44|
E |0------000------00|0------000------00|0------000------22|
You may ... Im not ... You may ... Onl

F#5 G5 F#5 G5 F#5 G5 F#5 G5 F#5 G5 F#5 G5
v v v v^v v v v^ v v v v^v v v v^ v v v v^v v v v^
e |------------------|------------------|------------------|
B |------------------|------------------|------------------|
G |------------------|------------------|------------------|
D |4--3-3-444--3-3-44|4--3-3-444--3-3-44|4--3-3-444--3-3-44|
A |4--3-3-444--3-3-44|4--3-3-444--3-3-44|4--3-3-444--4-4-44|
E |2--1-1-222--1-1-22|2--1-1-222--1-1-22|2--1-1-222--1-1-22|
y... Only... Only... Only... Only... Only... Onl

F#5 G5 F#5 E5
v v v v^v v v vv v vvv vv v vvv
e |------------------|---0--------0-----|---0--------0-----|
B |------------------|-0---0----0---0---|-0---0----0---0---|
G |------------------|------------------|------------------|
D |4--3-3-444--3-3-22|2------222------22|2------222--------|
A |4--3-3-444--3-3-22|2------222------22|2------222--------|
E |2--1-1-222--1-1-00|0------000------00|0------000--------|
y... Only... got

solo
N.C.

e |-------------------|-----------------|---------0-53--7b9|
B |-------------------|-----------------|-------------5----|
G |-1----1----1--123b4|r32-1----1----1--|12--121-----------|
D |2-2222-2222-2------|---2-2222-2222-2-|---2---2----------|
A |-------------------|-----------------|------------------|
E |-------------------|-----------------|------------------|

G5
end solo v^
e |r7-3.5.7.753-----|-----------------|-----------2-0~---|
B |---------------0-33|533--------------|050-0-55p40-0-----|
G |-------------------|----1------------|------------------|
D |-------------------|-----2---------0-|----------------44|
A |-------------------|------212--2-22--|----------------44|
E |-------------------|---------0--0----|----------------22|
Onl

F#5 G5 F#5 G5 F#5 G5 F#5 G5 F#5 G5 F#5 G5
v v v v^v v v v^ v v v v^v v v v^ v v v v^v v v v^
e |------------------|------------------|------------------|
B |------------------|------------------|------------------|
G |------------------|------------------|------------------|
D |4--3-3-444--3-3-44|4--3-3-444--3-3-44|4--3-3-444--3-3-44|
A |4--3-3-444--3-3-44|4--3-3-444--3-3-44|4--3-3-444--3-3-44|
E |2--1-1-222--1-1-22|2--1-1-222--1-1-22|2--1-1-222--1-1-22|
y... Only... Only... Only... Only... Only... Onl

F#5 G5 F#5 E5
v v v v^v v v vv v vvv vv v v^v^v^v^v^
e |------------------|---0--------0-----|---0---0000000000-|
B |------------------|-0---0----0---0---|-0---0-0000000000-|
G |------------------|------------------|-------XXXXXXXXXX-|
D |4--3-3-444--3-3-22|2------222------22|2------2222222222-|
A |4--3-3-444--3-3-22|2------222------22|2------2222222222-|
E |2--1-1-222--1-1-00|0------000------00|0------0000000000-|
y... Only... got got got goooooooot


v vvv vv v v^v^v^v^v^ v vvv vv
e |---0--------0-----|---0---0000000000-|---0--------0-----|
B |-0---0----0---0---|-0---0-0000000000-|-0---0----0---0---|
G |------------------|-------XXXXXXXXXX-|------------------|
D |2------222------22|2------2222222222-|2------222------22|
A |2------222------22|2------2222222222-|2------222------22|
E |0------000------00|0------0000000000-|0------000------00|
got got got goooooooot got got

v v^v^v^v^v^ v vvv vv v v^v^v^v^v^
e |---0---0000000000-|---0--------0-----|---0---0000000000-|
B |-0---0-0000000000-|-0---0----0---0---|-0---0-0000000000-|
G |-------XXXXXXXXXX-|------------------|-------XXXXXXXXXX-|
D |2------2222222222-|2------222------22|2------2222222222-|
A |2------2222222222-|2------222------22|2------2222222222-|
E |0------0000000000-|0------000------00|0------0000000000-|
got goooooooot got got got goooooooot

outro
N.C.(?) *2 *3
v^v^v^v^v^v^v v v^v
e |999999999999129 --|----999---9--M----|
B |999999999999 9911-|9---999---9--M----|
G |999999999999 99 --|----999---9--M----|
D |999999999999 99 -9|----999---9--M----|
A |------------ -- --|------------------|
E |------------ -- --|--------------0---|





Junkyrad - Nirvana akoru
Junkyrad - Nirvana notaları,
Junkyrad - Nirvana tablar bas tablar akord akor oku



iletisim  Reklam  Gizlilik sözlesmesi
Diger sitelerimize baktiniz mi ? Radyo Dinle - milli piyango sonuclari - 2017 yeni yil mesajlari - Güzel sözler Sohbet 2003- 2016 Canim.net Her hakki saklidir.