Güzel sözler | Fıkra | Hikaye | Şiir - Şair| Şarkı sözleri | Türküler | Sohbet odaları | Rüya | Sağlık | Biyografi | islam | Güzeller | Paylaş


Canim.net
Akorlar
Akor Ekle
Şarkı sözleri
Yabancı şarkı sözleri
Çeviriler
Türkü
A  B  C  Ç  D  E  F  G  Ğ  H  I  İ  J  K  L  M  N  O  Ö  P  R  S  Ş  T  U  Ü  V  Y  Z 



Journey To The Past - Aliyah



e |---3-2-3-5-3----3-2-3-5-7-5----7-5-7-8-7-3-5----------------------|
b |------------------------------------------------------------------|
g |------------------------------------------------------------------|
d |------------------------------------------------------------------|
a |------------------------------------------------------------------|
e |------------------------------------------------------------------|


People always say life is full of choices, No one ever mentions fear.

e |---6-5-6-8-6----6-5-6-8-10-8----10-9-10-12-14-10-14---------------|
b |------------------------------------------------------------------|
g |------------------------------------------------------------------|
d |------------------------------------------------------------------|
a |------------------------------------------------------------------|
e |------------------------------------------------------------------|


Or how the road can seem so long, How the road can seem so vast.

e |---6--13-11-13-15-13-11-13----13-11-13-15-13-11-13----------------|
b |------------------------------------------------------------------|
g |------------------------------------------------------------------|
d |------------------------------------------------------------------|
a |------------------------------------------------------------------|
e |------------------------------------------------------------------|


Courage see me through, heart Im trusting you, On this journey to the past.
e |---13-11-13-15-13----13-10-15-10-8----13-11-13-15----3-6--13------|
b |------------------------------------------------------------------|
g |------------------------------------------------------------------|
d |------------------------------------------------------------------|
a |------------------------------------------------------------------|
e |------------------------------------------------------------------|


Somewhere down this road, I know someones waiting, Years of dreams just cant be wrong.
e |---3-2-3-5-3----3-2-3-5-7-5----7-5-7-8-7-3-5----------------------|
b |------------------------------------------------------------------|
g |------------------------------------------------------------------|
d |------------------------------------------------------------------|
a |------------------------------------------------------------------|
e |------------------------------------------------------------------|


Arms will open wide, Ill be safe and wanted, Finally home where I belong.

e |---6-5-6-8-6----6-5-6-8-10-8----10-9-10-12-14-10-14---------------|
b |------------------------------------------------------------------|
g |------------------------------------------------------------------|
d |------------------------------------------------------------------|
a |------------------------------------------------------------------|
e |------------------------------------------------------------------|


Well starting here my life begins, Starting now Im learning fast.

e |---6--13-11-13-15-13-11-13----13-11-13-15-13-11-13----------------|
b |------------------------------------------------------------------|
g |------------------------------------------------------------------|
d |------------------------------------------------------------------|
a |------------------------------------------------------------------|
e |------------------------------------------------------------------|


Courage see me through, heart Im trusting you. On this journey, to the past.

e |---13-11-13-15-13----13-10-15-10-8----13-11-13-15----3-6--13------|
b |------------------------------------------------------------------|
g |------------------------------------------------------------------|
d |------------------------------------------------------------------|
a |------------------------------------------------------------------|
e |------------------------------------------------------------------|





Journey To The Past - Aliyah akoru
Journey To The Past - Aliyah notaları,
Journey To The Past - Aliyah tablar bas tablar akord akor oku



iletisim  Reklam  Gizlilik sözlesmesi
Diger sitelerimize baktiniz mi ? Radyo Dinle - milli piyango sonuclari - 2017 yeni yil mesajlari - Güzel sözler Sohbet 2003- 2016 Canim.net Her hakki saklidir.