Güzel sözler | Fıkra | Hikaye | Şiir - Şair| Şarkı sözleri | Türküler | Sohbet odaları | Rüya | Sağlık | Biyografi | islam | Güzeller | Paylaş


Canim.net
Akorlar
Akor Ekle
Şarkı sözleri
Yabancı şarkı sözleri
Çeviriler
Türkü
A  B  C  Ç  D  E  F  G  Ğ  H  I  İ  J  K  L  M  N  O  Ö  P  R  S  Ş  T  U  Ü  V  Y  Z 



İstanbulda Sonbahar - Teoman



Istanbulda Sonbahar Teoman

Am
----------0-----------0-----
-------1-----1-----1--------
----2-----------2-----------
----------------------------
--0-------------------------
----------------------------

Am Dm Am
Mevsim rüzgarlari ne zaman eserse o zaman hatirlarim
G Am
Çocukluk rüyalarim, seytan uçurtmalarim
Am Dm Am
Öper beni annem yanaklarimdan güzel bir rüyada
G Am
Sanki sevdiklerim hayattalarken hala

(nakarata geçis: g&c)

----------3--------------0---
-------0--------------1------
----0--------------0---------
-----------------------------
----------------3------------
-3---------------------------

Dm Am Dm Am
aksama dogru azalirsa yagmur, kizkulesi ve adalar )
Dm Am E Am
Nakarat
ah burda olsan çok güzel hala istanbulda sonbahar )

Am Dm
Herzaman kolay degil sevmeden sevismek
Am G Am
Tanimak bir vücudu yavasça ögrenmek alismak ve kaybetmek
Am Dm Am
Istanbul bugün yorgun üzgün ve yaslanmis biraz kilo almis
G Am
Aglamis yine, rimelleri akiyor

Solo:
Dm Am
---5---7---5----------5------- ------------------
---------------6----------8-------5--------------
------------------------------7------------------
-------------------------------------------------
-------------------------------------------------





İstanbulda Sonbahar - Teoman akoru
İstanbulda Sonbahar - Teoman notaları,
İstanbulda Sonbahar - Teoman tablar bas tablar akord akor oku



iletisim  Reklam  Gizlilik sözlesmesi
Diger sitelerimize baktiniz mi ? Radyo Dinle - milli piyango sonuclari - 2017 yeni yil mesajlari - Güzel sözler Sohbet 2003- 2016 Canim.net Her hakki saklidir.