Güzel sözler | Fıkra | Hikaye | Şiir - Şair| Şarkı sözleri | Türküler | Sohbet odaları | Rüya | Sağlık | Biyografi | islam | Güzeller | Paylaş


Canim.net
Akorlar
Akor Ekle
Şarkı sözleri
Yabancı şarkı sözleri
Çeviriler
Türkü
A  B  C  Ç  D  E  F  G  Ğ  H  I  İ  J  K  L  M  N  O  Ö  P  R  S  Ş  T  U  Ü  V  Y  Z 



İstanbul İstanbul - Kesmeşeker



e|---------------------------)
b|---------------------------)
g|---------------------------)
d|---2-----------------------) [A]
a|-0---0-3b4--0---0-0---0-0--)
e|---------------------------)


e|---------------------------)
b|---------------------------)
g|---2-----------------------)
d|-0---0-3b4--0---0-0---0-0--) [D]
a|---------------------------)
e|---------------------------)


e|--------------------------|-------------------------)
b|--------------------------|-------------------------)
g|-4-4-4-4-4-4-4-4-4-4-4-4--|-2-2-2-2-2-2-2-2-2-2-2-2-)
d|-2-2-2-2-2-2-2-2-2-2-2-2--|-0-0-0-0-0-0-0-0-0-0-0-0-) [E-D]
a|--------------------------|-------------------------)
e|--------------------------|-------------------------)

[A]
Dünyada bir sehir,
[A]
Sehirki ne sehir
[A]
Londra,Paris,Roma
[A]
Bu cok farkli bir maya
[D] [D]
Ne doguda ne batida
[A]
Ben asyadayken
[A]
Sen avrupada
[E-D]
Birakip gitmemi isteme benden,istesem de gidemem
[A]
Sevdim bir kere!
E
Yasamaya devam

[A] [D]
İstanbul, İstanbul-neler oldu
[A] [E-D]
yeah İstanbul, İstanbul-neler gordu
[A] [D]
Heryerden, herseyden,herkesten bir parca
[A] [E-D]
İstanbul, İstanbul hersey ortada


[A] [D]
Dünyanin incisi İstanbul-sehirinde,bir sahil kahvesinde
[A] [E-D]
Oturdum, bir bardak cay icmeye
[A] [D]
İnsanlar heryerde, heryerde, heryerde, yalnizdim heryerde
[A] [E-D]
Sevdiklerim kaldi geride




İstanbul İstanbul - Kesmeşeker akoru
İstanbul İstanbul - Kesmeşeker notaları,
İstanbul İstanbul - Kesmeşeker tablar bas tablar akord akor oku



iletisim  Reklam  Gizlilik sözlesmesi
Diger sitelerimize baktiniz mi ? Radyo Dinle - milli piyango sonuclari - 2017 yeni yil mesajlari - Güzel sözler Sohbet 2003- 2016 Canim.net Her hakki saklidir.