Güzel sözler | Fıkra | Hikaye | Şiir - Şair| Şarkı sözleri | Türküler | Sohbet odaları | Rüya | Sağlık | Biyografi | islam | Güzeller | Paylaş


Canim.net
Akorlar
Akor Ekle
Şarkı sözleri
Yabancı şarkı sözleri
Çeviriler
Türkü
A  B  C  Ç  D  E  F  G  Ğ  H  I  İ  J  K  L  M  N  O  Ö  P  R  S  Ş  T  U  Ü  V  Y  Z 



İstanbul - Duman



G#5 F#5 G#5 F#5
D-----666-4444-666-------4444--------666-4444-6---------66-4444--
A-----666-4444-666-------4444--------666-4444-6---------66-4444--
E-----444-2222-444-------2222--------444-2222-4---------44-2222--

Bu şehir rakıyla yaşar Bu şehir cigarayı çeker
Bu şehir gündüzü yaşar Bu şehir geceyi se_ver
Bu şehir adamı sö__ver Bu şehir kadınını döver
Bu şehir kanımızı emer Bu şehir için ölmeye değer

C5 Bb5 D5
G--5----3-----7--
D--5----3-----7--
A--3----1-----5--
E----------------
Is tan bul
Is tan bul

C5 Bb5 D5
G--5----3-----7-----8107----------------
D--5----3-----7-----8107----------------
A--3----1-----5-----68-5----------------
E-----------------------------------------
Is tan bul elinden öper





İstanbul - Duman akoru
İstanbul - Duman notaları,
İstanbul - Duman tablar bas tablar akord akor oku



iletisim  Reklam  Gizlilik sözlesmesi
Diger sitelerimize baktiniz mi ? Radyo Dinle - milli piyango sonuclari - 2017 yeni yil mesajlari - Güzel sözler Sohbet 2003- 2016 Canim.net Her hakki saklidir.