Güzel sözler | Fıkra | Hikaye | Şiir - Şair| Şarkı sözleri | Türküler | Sohbet odaları | Rüya | Sağlık | Biyografi | islam | Güzeller | Paylaş


Canim.net
Akorlar
Akor Ekle
Şarkı sözleri
Yabancı şarkı sözleri
Çeviriler
Türkü
A  B  C  Ç  D  E  F  G  Ğ  H  I  İ  J  K  L  M  N  O  Ö  P  R  S  Ş  T  U  Ü  V  Y  Z 



İnsanlar - Kurban



GİRİŞ

-----------------------------------------------------------------
-----------------------------------------------------------------
-----------------------------------------------------------------
-----4-4-----0-0-----4-4-----0-0-----4-4-----0-0-----4-4-----0-0-
-2-2-----2-2-----2-2-----2-2-----0-0-----0-0-----0-0-----0-0-----
-----------------------------------------------------------------

-----------------------------------------------------------------
-----------------------------------------------------------------
-----------------------------------------------------------------
-----4-4-----0-0-----4-4-----0-0-----4-4-----2-2-----4---5---4-2-
---------------------------------0-0-----0-0-----0-0---0---0-----
-3-3-----3-3-----3-3-----3-3-------------------------------------

giriş iki kez çalınıyor.Sonra solo:

D -------------------------------------
A -----4-5-5555h7-4-5-5555h7-4-5-4-5-7- X3 sonra
E -5-7---------------------------------

D -4444------------------------------------
A ------7777-5555-4444-7777-5555-4444------
E ------------------------------------3333-

solo sonrası geçiş:

D -4----------------------4-------------------
A -4----------------------4----5-4------------
E -2----------------------2--------7-5--------
X


D ---9---9---9---9---7---7---7---7---7---7---7---7---4---4---5---5-
A ---9---9---9---9---7---7---7---7---7---7---7---7---4---4---5---5-
E -0-7-0-7-0-7-0-7-0-5-0-5-0-5-0-5-0-5-0-5-0-5-0-5-0-2-0-2-0-3-0-3-
birisi susmuş küsmüş niye diğeri derki herşey zevkle
biri de durmuş sadece bakar öteki kafayı bozmuş yemekle

G ---7---7---7---7---2---2---2---2--4---4-2-4---4-2-4---4-2-4-2-4-6-7-------
D ---7---7---7---7---2---2---2---2--4---4-2-4---4-2-4---4-2-4-2-4-6-7-------
A ---5---5---5---5---0---0---0---0--2---2-0-2---2-0-2---2-0-2-0-2-4-5-------
E -0---0---0---0---0---0---0---0------0-------0-------0---------------------
güneşi sevmez hep geceyi bekler koşuyorum sanır

G -2---------------------------
D -2--------------4------4-----
A -0--------------4------4-----
E ----------------2------2-----
sadece emekler aaa aaaaaaa

nakarat:

D -9-9-9-9-7-------------------
A -9-9-9-9-7---4-5-4h5p4-------
E -7-7-7-7-5-5-----------7-5---
iiinsanlar görmezler
iiinsanlar bilmezler
iiinsanlar duymazlar
D -4------------5---
A -4------------5---
E -2------------3---
neeeeeee yapsın insanlar.





İnsanlar - Kurban akoru
İnsanlar - Kurban notaları,
İnsanlar - Kurban tablar bas tablar akord akor oku



iletisim  Reklam  Gizlilik sözlesmesi
Diger sitelerimize baktiniz mi ? Radyo Dinle - milli piyango sonuclari - 2017 yeni yil mesajlari - Güzel sözler Sohbet 2003- 2016 Canim.net Her hakki saklidir.