Güzel sözler | Fıkra | Hikaye | Şiir - Şair| Şarkı sözleri | Türküler | Sohbet odaları | Rüya | Sağlık | Biyografi | islam | Güzeller | Paylaş


Canim.net
Akorlar
Akor Ekle
Şarkı sözleri
Yabancı şarkı sözleri
Çeviriler
Türkü
A  B  C  Ç  D  E  F  G  Ğ  H  I  İ  J  K  L  M  N  O  Ö  P  R  S  Ş  T  U  Ü  V  Y  Z 



İnce İnce Bir Kar Yağar Intro Tab - Selda Bağcan



E|-----------------|-----------------|
B|-3-------3-------|-----------------|
G|---4-4-4---4-4-2-|-2-0-0-----------|tekrar 4 defa
D|-----------------|-------4-4-2-2~--|
A|-----------------|-----------------|
E|-----------------|-----------------|

Ve:
E|-10--9--10--9---------------|
B|----------------------------|
G|---------------7--6--7--6---|
D|----------------------------|
A|----------------------------|
E|----------------------------|

E|-------------------------------|----------|
B|-------------------------------|----------|
G|-------------------------------|----------|
D|-2-2--2-2--2-2--2-2------------|----------|
A|----------------------5---5-7--|----------|
E|-0-0--0-0--0-0--0-0-----7------|-0~~------|




İnce İnce Bir Kar Yağar Intro Tab - Selda Bağcan akoru
İnce İnce Bir Kar Yağar Intro Tab - Selda Bağcan notaları,
İnce İnce Bir Kar Yağar Intro Tab - Selda Bağcan tablar bas tablar akord akor oku



iletisim  Reklam  Gizlilik sözlesmesi
Diger sitelerimize baktiniz mi ? Radyo Dinle - milli piyango sonuclari - 2017 yeni yil mesajlari - Güzel sözler Sohbet 2003- 2016 Canim.net Her hakki saklidir.