Güzel sözler | Fıkra | Hikaye | Şiir - Şair| Şarkı sözleri | Türküler | Sohbet odaları | Rüya | Sağlık | Biyografi | islam | Güzeller | Paylaş


Canim.net
Akorlar
Akor Ekle
Şarkı sözleri
Yabancı şarkı sözleri
Çeviriler
Türkü
A  B  C  Ç  D  E  F  G  Ğ  H  I  İ  J  K  L  M  N  O  Ö  P  R  S  Ş  T  U  Ü  V  Y  Z 



İnan Ki Tab - Erkin Koray



İnan ki..
Senden başka..
Senden başka..
Senden başka..
Hiç..
Kimse yok içimde..
Kimse yok içimde..

E|------------------------------------- }
B|------------------------------------- }
G|-7--5h7p54--2--4--5--7--4----------- } x 2
D|------------------------------------- }
A|------------------------------------- }
E|------------------------------------- }

E|------------------------------------------ }
B|------------------------------------------ }
G|------------------------------------------ }
D|-4--5&7&9&10&121097542--0----------- }
A|----------------------------------3--2--0- }
E|------------------------------------------ }
} x 2
-----------------------------------------| }
-----------------------------------------| }
-----------------------------------------| }
--4--2--0--2--0--------------------------| }
-------------------3--5--3h5p32---------| }
-----------------------------------------| }

Yüzüne bakmasam da,başımı çevirsem de..
Seni her gördüğümde..seni her gördüğümde..

E|---------------------------------------
B|---------------------------------------
G|-4--5--7&9--7--5--7--5h7p54-----------
D|---------------------------------------
A|---------------------------------------
E|---------------------------------------

----7--8-10&12-10--8-10--8h10p87------|
---------------------------------------|
---------------------------------------|
---------------------------------------|
---------------------------------------|
---------------------------------------|

İnaaaan ki.. senden başka senden başka senden başka hiç..
Kimse yok içimde..kimse yok içimde..

E|-----------------------------------
B|-----------------------------------
G|-4--5&9--8--4--4--5p42--4--7--7h9-
D|-----------------------------------
A|-----------------------------------
E|-----------------------------------

----------------------------------|
----------------------------------|
-9&11-11-12p11p-9-11--9754-----|
----------------------------------|
----------------------------------|
----------------------------------|

Ne kadar kırgın olsam dargın olsam da yine..
Dargın olsam da yine..

E|---------------------------------------
B|---------------------------------------
G|-4--5--7&9--7--5--7--5h7p54-----------
D|---------------------------------------
A|---------------------------------------
E|---------------------------------------

----7--8-10&12-10--8-10--8h10p87------|
---------------------------------------|
---------------------------------------|
---------------------------------------|
---------------------------------------|
---------------------------------------|

İnaaaan ki.. senden başka.. senden başka.. senden başka..
Hiç.. kimse yok içimde..kimse yok içimde..
..kimse yok içimde..
..hımm..hımm...
..aaaa..
..kimse yok içimde..

--------------
& =slide up
=slide down
H =hammer-on
P =pull-off
--------------




İnan Ki Tab - Erkin Koray akoru
İnan Ki Tab - Erkin Koray notaları,
İnan Ki Tab - Erkin Koray tablar bas tablar akord akor oku



iletisim  Reklam  Gizlilik sözlesmesi
Diger sitelerimize baktiniz mi ? Radyo Dinle - milli piyango sonuclari - 2017 yeni yil mesajlari - Güzel sözler Sohbet 2003- 2016 Canim.net Her hakki saklidir.