Güzel sözler | Fıkra | Hikaye | Şiir - Şair| Şarkı sözleri | Türküler | Sohbet odaları | Rüya | Sağlık | Biyografi | islam | Güzeller | Paylaş


Canim.net
Akorlar
Akor Ekle
Şarkı sözleri
Yabancı şarkı sözleri
Çeviriler
Türkü
A  B  C  Ç  D  E  F  G  Ğ  H  I  İ  J  K  L  M  N  O  Ö  P  R  S  Ş  T  U  Ü  V  Y  Z 



İki Yol Tab - Mavi Sakal



hb:half bend
fb:full bend

e|----------------------------------------------------|
b|----------------------------------------------------|
g|----------------------------------------------------|
D|---------------4-5~~~-4h5-7---5-4^------------------|
A|------&9hb--5---------------------5--3~~~----------|
E|----------------------------------------------------|
pm .


e|-----------------------------------------------------|
b|------18^-18hb--(18)-(18)fb-(18)hr-(18)-(18)---------|
g|--16hb-------------------------------------19^-17~~--|
D|-----------------------------------------------------|
A|-----------------------------------------------------|
E|-----------------------------------------------------|

e|-----------------------------------------7------------|
b|---------------------------------------5--------------|
g|------------------------------------5-----------------|
D|---------------4-5~~~-4-5^-5&7--7h9-------------------|
A|------&9fb--5----------------------------------------|
E|------------------------------------------------------|
pm .


e|------------------------------------------------------|
b|-----12^-12^-12^-12r~~~~-(12)-13^-15~~~-1510-10&20---|
g|------------------------------------------------------|
D|------------------------------------------------------|
A|------------------------------------------------------|
E|------------------------------------------------------|




İki Yol Tab - Mavi Sakal akoru
İki Yol Tab - Mavi Sakal notaları,
İki Yol Tab - Mavi Sakal tablar bas tablar akord akor oku



iletisim  Reklam  Gizlilik sözlesmesi
Diger sitelerimize baktiniz mi ? Radyo Dinle - milli piyango sonuclari - 2017 yeni yil mesajlari - Güzel sözler Sohbet 2003- 2016 Canim.net Her hakki saklidir.