Güzel sözler | Fıkra | Hikaye | Şiir - Şair| Şarkı sözleri | Türküler | Sohbet odaları | Rüya | Sağlık | Biyografi | islam | Güzeller | Paylaş


Canim.net
Akorlar
Akor Ekle
Şarkı sözleri
Yabancı şarkı sözleri
Çeviriler
Türkü
A  B  C  Ç  D  E  F  G  Ğ  H  I  İ  J  K  L  M  N  O  Ö  P  R  S  Ş  T  U  Ü  V  Y  Z 



İki Yol Solo Tab - Mavi Sakal



E||-0-2-2-0-2-3-2-3-5-3-2-3---------------
B||----------------------------------3-0--
G||---------------------------------------
D||---------------------------------------
A||--------------------------|------------
E||--------------------------|------------



--12-13^13-14-14^14-14-10-8-7-----------
----------------------------------------
----------------------------------------
----------------------------------------
----------------------------------------
----------------------------------------

----------------------------------------
--0-7-7-0-7-8-7-8-10-10>12-13-15-16-----
----------------------------------------
----------------------------------------
----------------------------------------
----------------------------------------

---------------------------------------14-15--------
--12-12-12----12-13-15--12-15-----------------------
---------------------------------------------------|
---------------------------------------------------|
---------------------------------------------------|
---------------------------------------------------|




İki Yol Solo Tab - Mavi Sakal akoru
İki Yol Solo Tab - Mavi Sakal notaları,
İki Yol Solo Tab - Mavi Sakal tablar bas tablar akord akor oku



iletisim  Reklam  Gizlilik sözlesmesi
Diger sitelerimize baktiniz mi ? Radyo Dinle - milli piyango sonuclari - 2017 yeni yil mesajlari - Güzel sözler Sohbet 2003- 2016 Canim.net Her hakki saklidir.