Güzel sözler | Fıkra | Hikaye | Şiir - Şair| Şarkı sözleri | Türküler | Sohbet odaları | Rüya | Sağlık | Biyografi | islam | Güzeller | Paylaş


Canim.net
Akorlar
Akor Ekle
Şarkı sözleri
Yabancı şarkı sözleri
Çeviriler
Türkü
A  B  C  Ç  D  E  F  G  Ğ  H  I  İ  J  K  L  M  N  O  Ö  P  R  S  Ş  T  U  Ü  V  Y  Z 



Its My Life - Bon Jovi



Am Em G C F
E|----0-------0---0---1------------------|
B|----1---0---2---1---1------------------|
G|----2---0---0---0---2------------------|
D|----2---2---0---2---3------------------|
A|----0---2---2---3---3------------------|
E|--------0---3---0---1------------------|


Intro

E|--------------1-0---------------------|
B|----1-------5-----1--1----1--0--------|
G|*---2-----5----------2----------2----*|
D|*---2--&7------------3---------------*|



Am Em G
This aint a song for the broken hearted

Am Em G
A silent prayer for faith departed

Am Em
I aint gonna be just a face in the crowd

C G Am
Youre gonna hear my voice when I shout it oud loud

Am F C
Its my life, its now or never

G Am
I aint gonna live forever

F C Em G
I just want to live when Im alive

Am F C
Its my life; my heart is like an open highway

G Am
Like franky said I did it my way,

F Em
I just wanna live when Im alive

Em G C
Its my life


E|----------1-0--------------------|
B|--------5-----1--1----1--0-------|
G|------5----------2----------2----|
D|---&7------------3---------------|




Am Em G
This is for ones who stood their ground

Am Em G
Like Tommy and Gina, never backed down

Am C
Tomorrows getting harder make no mistake

Em G Am
Luck aint even lucky got to make your own breaks


Am F C
Its my life, its now or never

G Am
I aint gonna live forever

F C Em G
I just want to live when Im alive

Am F C
Its my life; my heart is like an open highway

G Am
Like franky said I did it my way,

F Em
I just wanna live when Im alive

Em G C
Its my life


G C
You better stand tall when theyre calling you out

Am Em G
Dont bend dont break baby dont back dow



Am F C
Its my life, its now or never

G Am
I aint gonna live forever

F C Em G
I just want to live when Im alive

Am F C
Its my life; my heart is like an open highway

G Am
Like franky said I did it my way,

F Em
I just wanna live when Im alive

Em G C
Its my life


E|----------1-0---------------1-0-------------|
B|--------5-----1-----------5-----1-----1-----|
G|------5---------2-------5-------------2-----|
D|---&7----------------&7---------------2-----|





Its My Life - Bon Jovi akoru
Its My Life - Bon Jovi notaları,
Its My Life - Bon Jovi tablar bas tablar akord akor oku



iletisim  Reklam  Gizlilik sözlesmesi
Diger sitelerimize baktiniz mi ? Radyo Dinle - milli piyango sonuclari - 2017 yeni yil mesajlari - Güzel sözler Sohbet 2003- 2016 Canim.net Her hakki saklidir.