Güzel sözler | Fıkra | Hikaye | Şiir - Şair| Şarkı sözleri | Türküler | Sohbet odaları | Rüya | Sağlık | Biyografi | islam | Güzeller | Paylaş


Canim.net
Akorlar
Akor Ekle
Şarkı sözleri
Yabancı şarkı sözleri
Çeviriler
Türkü
A  B  C  Ç  D  E  F  G  Ğ  H  I  İ  J  K  L  M  N  O  Ö  P  R  S  Ş  T  U  Ü  V  Y  Z 



Insanitys Crescendotab - Dark Tranquillity



Riff A (Play A Total Of 1 Time)
|----------------------0-----0--------------|
|-----------0------------6-----6---6--------|
|------2-&5---5---5-------------------------|Gtrs
|----2----------7----0-----7-----7----------| I&II
|--0----------------------------------------|
|-------------------------------------------|


|----------------------0----------h--0------|
|-----------0------------1-----0-0-3--------|Gtrs
|------2-&5---5---5-------------------------| I&II
|----2----------7----------0----------------|
|--0-----------------3-------2--------------|
|-------------------------------------------|


|----------------------0-----0--------------|
|-----------0------------6-----6---6--------|
|------2-&5---5---5-------------------------|Gtrs
|----2----------7----0-----7-----7----------| I&II
|--0----------------------------------------|
|-------------------------------------------|


|----------------------0----------h--0------|
|-----------0------------1-----0-0-3--------|
|------2-&5---5---5-------------------------|Gtr
|----2----------7----------0----------------| I
|--0-----------------3-------------------0--|
|----------------------------0--------------|
| |
|----------------------0----------h--0------|
|-----------0------------1-----0-0-3--------|
|------2-&5---5---5-------------------------|Gtr
|----2----------7----------0-------------2--| II
|--0-----------------3-------------------0--|
|----------------------------0--------------|


Riff B (Play A Total Of 1 Time)
|-------------------------------------0-----------|
|--1------3-1-0-1----------1----3-1-3-------0--0--|
|---------------------2--2------------------------|Gtrs
|-------2-----------2-----------------------------| I&II
|----0------------0------------0-----------2------|
|----------------------------1-----------0--------|


|-------------------------------------0-----------|
|--1------3-1-0-1----------1----3-1-3-------0-----|
|---------------------2--2------------------------|Gtrs
|-------2-----------2-----------------------------| I&II
|----0------------0------------0-----------2------|
|----------------------------1-----------0--------|


Riff C (Play A Total Of 2 Times)
|--0-----1--0----0-------------------------------------|
|--------------3-------0--1--3-----1-0--------------1--|
|--------------------------------------0--2-----2-4----|Gtrs
|------2-------------------------0---------------------| I&II
|----0---------------2------------------------0--------|
|------------------0-----------3------------1----------|


Riff D.1 (Play A Total Of 3 Times)
|--------8-----------7-----------5-----------5-7-8--|
|------5---5-------5---5-------5---5-------5--------|
|:---5-------5---5-------5---5-------5---5----------|Gtrs
|:--------------------------------------------------| I&II
|---------------------------------------------------|
|--5-----------5-----------5-----------5------------|


|--------3-----------1-----------0-----------0------|
|------3---3-------1---1-------1---1-------1---1----|
|----------------2-------2---2-------2---2-------2-:|Gtrs
|----5-------5-------------------------------------:| I&II
|--------------------------0-----------0------------|
|--3-----------1------------------------------------|



Riff D.2 (Play A Total Of 1 Time)
|--------8-----------7-----------5-----------5-7-8--|
|------5---5-------5---5-------5---5-------5--------|
|:---5-------5---5-------5---5-------5---5----------|Gtrs
|:--------------------------------------------------| I&II
|---------------------------------------------------|
|--5-----------5-----------5-----------5------------|


|--------3-----------1-----------0-----(0)----------|
|------3---3-------1---1-------1---1----1-----------|
|----------------2-------2---2-------2--2----------:|Gtrs
|----5-------5--------------------------2----------:| I&II
|--------------------------0------------0-----------|
|--3-----------1------------------------------------|


Play Riff B (Play A Total Of 1 Time)
Play Riff C (Play A Total Of 2 Times)


Riff E (Play 1 Time Acoustic)
|--------------------0----------------------------0--|
|--------0-----------------------0--------------0----|
|------5---5-------5---5-------5---5-------7---------|Gtrs
|----7-------7---7-------7---7-------7---7-----------| I&II
|--0-----------8-----------7-----------8------7------|
|----------------------------------------------------|


Riff F (All Gtrs Are Electric Now) (Play A Total Of 1 Time)
|--------------------0----------------------------0--|
|--------0-----------------------0--------------0----|
|------5---5-------5---5-------5---5-------7---------|Gtrs
|----7-------7---7-------7---7-------7---7-----------| I&II
|--0-----------8-----------7-----------8------7------|
|----------------------------------------------------|
| |
|----------------------------------------------------|
|----------------------------------------------------|
|--2----------(2)---------(2)---------(2)------------|
|--2----------(2)---------(2)---------(2)------------|Gtrs
|--0----------(0)---------(0)---------(0)------------| III&IV
|----------------------------------------------------|



|--------------------0----------------------------0--|
|--------0-----------------------0--------------0----|
|------5---5-------5---5-------5---5-------7---------|Gtrs
|----7-------7---7-------7---7-------7---7-----------| I&II
|--0-----------8-----------7-----------8------7------|
|----------------------------------------------------|
| |
|----------------------------------------------------|
|----------------------------------------------------|
|-(2)---------(2)---------(2)---------(2)------------|Gtrs
|-(2)---------(2)---------(2)---------(2)------------| III&IV
|-(0)---------(0)---------(0)---------(0)------------|
|----------------------------------------------------|



|--------------------0----------------------------0--|
|--------0-----------------------0--------------0----|
|------5---5-------5---5-------5---5-------7---------|Gtrs
|----7-------7---7-------7---7-------7---7-----------| I&II
|--0-----------8-----------7-----------8------7------|
|----------------------------------------------------|
| |
|----------------------------------------------------|
|----------------------------------------------------|
|--2-2-2-2-----------------2-2-2-2-------------------|Gtrs
|--2-2-2-2-----------------2-2-2-2-------------------| III&IV
|--0-0-0-0-----------------0-0-0-0-------------------|
|----------------------------------------------------|



|--------------------0----------------------------0--|
|--------0-----------------------0--------------0----|
|------5---5-------5---5-------5---5-------7---------|Gtrs
|----7-------7---7-------7---7-------7---7-----------| I&II
|--0-----------8-----------7-----------8------7------|
|----------------------------------------------------|
| |
|----------------------------------------------------|
|----------------------------------------------------|
|--2-2-2-2-----------------2-2-2-2-----7----9--------|Gtr
|--2-2-2-2-----------------2-2-2-2-----7----9--------| III
|--0-0-0-0-----------------0-0-0-0-00005555577777----|
|----------------------------------....-....-....----|
| |
|----------------------------------------------------|
|----------------------------------------------------|
|--2-2-2-2-----------------2-2-2-2-----7----9--------|Gtr
|--2-2-2-2-----------------2-2-2-2-----7----9--------| IV
|--0-0-0-0-----------------0-0-0-000000555557777~----|
|---------------------------------.....-....-..------|


Riff G
|----------------------------------------------------|
|----------------------------------------------------|
|--2-----2-----2-----2-------------------------------|Gtrs
|--2-----2-----2-----2-----3-----3-----2-----2-------| III&IV
|--0-000-0-000-0-000-0-000-3-----3-----2-----2-------|
|----...---...---...---...-1-111-1-111-0-000-0-000---|
... ... ... ...


|----------------------------------------------------|
|---------------------------------------------*=semi harmonic
|--2-----2-----2-----2-------------------------------|Gtr III
|--2-----2-----2-----2-----3-----3-----2-----*-------|
|--0-000-0-000-0-000-0-000-3-----3-----2-----3~------|
|----...---...---...---...-1-111-1-111-0-000---------|
| ... ... ... |
| |
|----------------------------------------------------|
|----------------------------------------------------|
|--2-----2-----2-----2-------------------------------|Gtr IV
|--2-----2-----2-----2-----3-----3-----2-------------|
|--0-000-0-000-0-000-0-000-3-----3-----2-----3~------|
|----...---...---...---...-1-111-1-111-0-000---------|
... ... ...


|----------------------------------------------------|
|----------------------------------------------------|
|--2-----2-------------------------------------------|Gtrs
|--2-----2-----2-----2-----5-----5-----3-------------| III&IV
|--0-000-0-000-2-----2-----5-----5-----3-----3-5-3---|
|----...---...-0-000-0-000-3-333-3-333-1-111-1-3-1---|
... ... ... ... ... . . .


|----------------------------------------------------|
|----------------------------------------------------|
|--2-----2-------------------------------------------|Gtrs
|--2-----2-----2-----2-----5-----5-----3-------------| III&IV
|--0-000-0-000-2-----2-----5-----5-----3-----3-5-3---|
|----...---...-0-000-0-000-3-333-3-333-1-111-1-3-1---|
... ... ... ... ... . . .


Riff H (Play A Total Of 1 Time)
|----------------------------------------------------|
|--------------------------------------h-------------|
|--5--5-7-5-4-5----------------7----7-7-9~-----------|Gtr
|---------------7-7~--7-&10-10---10------------------| III
|----------------------------------------------------|
|----------------------------------------------------|
| |
|----------------------------------------------------|
|----------------------------------------------------|
|--2-------------------------------------------------|Gtr
|--2----------------------3-------------2------------| IV
|--0----------------------3-------------2------------|
|-------------------------1-------------0------------|



|------------------------------------*=artificial----|
|---------------------------------------harmonic-----|
|-9999-9-10-9-7-9--------7-7---------*---------------|Gtr
|-----------------9-9-10-----10-9----7fb+r+b+r~------| III
|---------------------------------10-----------------|
|----------------------------------------------------|
| |
|----------------------------------------------------|
|----------------------------------------------------|
|-2--------------------------------------------------|Gtr
|-2-------------2--------5-----------3----3-333------| IV
|-0-------------2--------5-----------3----3-333------|
|---------------0--------3-----------1----1-111------|
. ...

|-----------------------------------------------------------|
|-----------------------------------------------------------|
|-------------------------------------h--p------------------|Gtr
|-7-&14-14-15-14-15-1712-12--9--9-9-9-10-9-----------------| III
|-------------------------------------------10-12-(12)fb+r~~|
|-----------------------------------------------------------|
| |
|-----------------------------------------------------------|
|-----------------------------------------------------------|
|-----5-----------------------------------------------------|Gtr
|-----5--------------5--------4-----------------2-----------| IV
|-----3--------------2--------2-----------------0-----------|
|-----------------------------------------------------------|


*- Note: (Gtr III In Riff I may&may not be playing the)
(muted bass notes...the way the song is mixed)
(is too hard to tell. I added them because I)
(think it sounds better than without them! )

Riff I (Play A Total Of 1 Time)
|--------------0-----------------------0-------------|
|--------1-----------------------1-------------------|
|--2-----------------------2-------------------------|Gtr
|----------------------------------------------------| III
|----000---000---000-0-000---------------------------|
|----...---...---...-.-...---111---111---000-0-1-0---|
| ... ... ... . . . |
| |
|----------------------------------------------------|
|----------------------------------------------------|
|--2-----2-----2-----2-------------------------------|Gtr
|--2-----2-----2-----2-----3-----3-----2-------------| IV
|--0-000-0-000-0-000-0-000-3-----3-----2-----2-3-2---|
|----...---...---...---...-1-111-1-111-0-000-0-1-0---|
... ... ... . . .


|--------------0-----------------------0-------------|
|--------1-----------------------1-------*artificial-|
|--2-----------------------2---------------harmonic--|Gtr
|-------------------------------------------***------| III
|----000---000---000-0-000------------------*3*------|
|----...---...---...-.-...---111---111---000---------|
| ... ... ... |
| |
|----------------------------------------------------|
|----------------------------------------------------|
|--2-----2-----2-----2-------------------------------|Gtr
|--2-----2-----2-----2-----3-----3-----2-------------| IV
|--0-000-0-000-0-000-0-000-3-----3-----2-----3~------|
|----...---...---...---...-1-111-1-111-0-000---------|
... ... ...



|--------0-----3-----------------------------------|
|--------------------------------------------------|
|--2--------------------------------24-5-----2-4-2-|Gtr
|--2-----------------2-----5-----5-----------------| III
|--0-000---000-------2-----5-----5-----------------|
|----...---...---000-0-000-3-333-3-------111-------|
| ... ... ... ... |
| |
|--------------------------------------------------|
|--------------------------------------------------|
|--2-----2-----------------------------------------|Gtr
|--2-----2-----2-----2-----5-----5-----3-----------| IV
|--0-000-0-000-2-----2-----5-----5-----3-----3-5-3-|
|----...---...-0-000-0-000-3-333-3-333-1-111-1-3-1-|
... ... ... ... ... . . .



|--------0-----3-----------------3-----------------|
|--1-----------------------0---------0--1----------|
|--------------------------------------------2-4-2-|Gtr
|--------------------------------------------------| III
|----000---000-------------------------------------|
|----...---...---000-0-000---333-------------------|
| ... . ... ... |
| |
|--------------------------------------------------|
|--------------------------------------------------|
|--2-----2-----------------------------------------|Gtr
|--2-----2-----2-----2-----5-----5-----3-----------| IV
|--0-000-0-000-2-----2-----5-----5-----3-----3-5-3-|
|----...---...-0-000-0-000-3-333-3-333-1-111-1-3-1-|
... ... ... ... ... . . .


Riff J
|----------------------------------------------------|
|----------------------------------------------------|
|-------------------------------2--------------------|Gtr
|---------------------3---------0--2-----2--0--3--2--| III
|--0----0--3--5----5-----0---0-----------------------|
|----------------------------------------------------|
| |
|--5-------------------------------------------------|
|--5-------------------------------------*trill-notes|
|--5------------------------------------------**-----|Gtr
|--7---------------------2--------------------87-----| IV
|--7----------5----------0---------2-----2--5-----7--|
|--5-------------------------------0-----0--3-----5--|



|---------------------------------*=artficial harmonics------|
|-------------------------------------------*----*---3-------|
|-----0--2----2-------2---------------2--4--4--5-4------5----|Gtr
|--2---------------------3--2------2----------------------2--| III
|------------------------------------------------------------|
|------------------------------------------------------------|

*There might be a couple of errors past this point cause I had to tab
the rest of this song out pretty quickly, but it should be mostly
correct.

Riff K (Play A Total Of 1 Time)
|------------------------------------|
|------------------------------------|
|-----------------------------0-2----|Gtr III
|-----------------2-0-------------3--|
|-0-----------0-3--------------------|
|------------------------------------|
| |
|---------------------0-----0-----0--|
|-----------0-----------6-----6------|
|------2-&5---5---5------------------|Gtr IV
|----2----------7---0-----7-----7----|
|--0---------------------------------|
|------------------------------------|



|--------------------------------------|
|--------------------------------------|
|-------------2-2-245-----5-4~----3----|Gtr III
|2------------------------------------|
|--------------------------------------|
|--------------------------------------|
| |
|---------------------0----------h--0--|
|-----------0-----------1-----0-0-3----|Gtr IV
|------2-&5---5---5--------------------|
|----2----------7---------0------------|
|--0----------------3------(2)---------|
|---------------------------0----------|



|----------------------------3---------|
|-5~----------5-6-5--3~--6~----6-5-3---|
|--------------------------------------|Gtr III
|--------------------------------------|
|--------------------------------------|
|--------------------------------------|
| |
|----------------------0-----0-----0---|
|-----------0------------6-----6-------|
|------2-&5---5---5--------------------|Gtr IV
|----2----------7----0-----7-----7-----|
|--0-----------------------------------|
|--------------------------------------|


|-------------------------------------------|
|-&5------------5-5-35-------1-0------------|
|------5~------------------------2----------|Gtr III
|----------------------------------2--------|
|------------------------------------3-2----|
|-------------------------------------------|
| |
|----------------------0--------------------|
|-----------0------------1-1----------------|Gtr IV
|------2-&5---5---5-------------------------|
|----2----------7---------------------------|
|--0-----------------3----------------------|
|-------------------------------------------|



Riff L (Play A Total Of 1 Time)
|---------------------------------------------------|
|---------------------------------------------------|
|---------------------------------------------------|Gtr III
|--------------------------------------------2-4-5--|
|--0----------(0)---------(0)----------------0-2-3--|
|---------------------------------------------------|
| |
|--------8-----------7-----------5-----------5-7-8--|
|------5---5-------5---5-------5---5-------5--------|
|:---5-------5---5-------5---5-------5---5----------|Gtr IV
|:--------------------------------------------------|
|---------------------------------------------------|
|--5-----------5-----------5-----------5------------|


|---------------------------------------------------|
|---------------------------------------------------|
|---------------------------------------------------|Gtr III
|---------------------------------------------------|
|--5-----5-----3----&8-7-7-7-----------------2-2-2--|
|--3-----3-----1-------5-5-5-----------------0-0-0--|
| |
|--------3-----------1-----------0-----(0)----------|
|------3---3-------1---1-------1---1----1-----------|
|----------------2-------2---2-------2--2----------:|Gtrs
|----5-------5--------------------------2----------:| I&II
|--------------------------0------------0-----------|
|--3-----------1------------------------------------|



|--------------------5-5-5-5-5-5-5-5-5-5-5-5--------|
|--------------------5-5-5-5-5-5-5-5-5-5-5-5--------|
|--------------------5-5-5-5-5-5-5-5-5-5-5-5--------|Gtr III
|--------------------------------------------2-4-5--|
|--7-----------------------------------------0-2-3--|
|--5------------------------------------------------|
| |
|--------8-----------7-----------5-----------5-7-8--|
|------5---5-------5---5-------5---5-------5--------|
|:---5-------5---5-------5---5-------5---5----------|Gtr IV
|:--------------------------------------------------|
|---------------------------------------------------|
|--5-----------5-----------5-----------5------------|


|---------------------------------------------------|
|---------------------------------------------------|
|---------------------------------------------------|Gtr III
|-------------------------------------------5-7-5---|
|--5-----------3-----7-7-7---------7-7-7------------|
|--3-----------1-----5-5-5---------5-5-5------------|
| |
|--------3-----------1-----------0----(0)-----------|
|------3---3-------1---1-------1---1---1------------|
|----------------2-------2---2-------2-2-----------:|Gtrs
|----5-------5-------------------------2-----------:| I&II
|--------------------------0-----------0------------|
|--3-----------1------------------------------------|



|----------5-5-5-------5-5-5-5-5-5-5-5-5------------|
|----------5-5-5-------5-5-5-5-5-5-5-5-5------------|
|----------5-5-5-------5-5-5-5-5-5-5-5-5------------|Gtr III
|--7-------------------------------------------4-5--|
|--7-----------------------------------------7------|
|--5-----------------------------------------5------|
| |
|--------8-----------7-----------5-----------5-7-8--|
|------5---5-------5---5-------5---5-------5--------|
|:---5-------5---5-------5---5-------5---5----------|Gtr IV
|:--------------------------------------------------|
|---------------------------------------------------|
|--5-----------5-----------5-----------5------------|


Riff M (Play A Total Of 1 Time)
|------------------------------------------------------------|
|------------------------------------------------------------|Gtrs
|------------------------------------------------------------| III&IV
|-----------------------------2------2------7------9---------|
|-5------5------3------3------0-0000-0-0000-5-5555-7-7777----|
|-3-3333-3-3333-1-1111-1-1111--------------------------------|


|----------------------------------------------------|
|----------------------------------------------------|
|--2-2-2-2----(2)---------(2)---------(2)------------|Gtrs
|--2-2-2-2----(2)---------(2)---------(2)------------| III&IV
|--0-0-0-0----(0)---------(0)---------(0)------------|
|----------------------------------------------------|
| |
|--------------------0----------------------------0--|
|--------0-----------------------0--------------0----|
|------5---5-------5---5-------5---5-------7---------|Gtrs
|----7-------7---7-------7---7-------7---7-----------| I&II
|--0-----------8-----------7-----------8------7------|
|----------------------------------------------------|


|----------------------------------------------------|
|----------------------------------------------------|
|-(2)---------(2)---------(2)---------(2)------------|Gtrs
|-(2)---------(2)---------(2)---------(2)------------| III&IV
|-(0)---------(0)---------(0)---------(0)------------|
|----------------------------------------------------|
| |
|--------------------0----------------------------0--|
|--------0-----------------------0--------------0----|
|------5---5-------5---5-------5---5-------7---------|Gtrs
|----7-------7---7-------7---7-------7---7-----------| I&II
|--0-----------8-----------7-----------8------7------|
|----------------------------------------------------|


|----------------------------------------------------|
|----------------------------------------------------|
|--2---2-2-2---------------------------2---2---------|Gtrs
|--2---2-2-2---3-333-&5---2---------2-3---3--2-2-2--| III&IV
|--0---0-0-0---3-333-&5---2---------2-3---3--2-2-2--|
|--------------1-111-&3---------------1---1---------|
| |
|--------------------0----------------------------0--|
|--------0-----------------------0--------------0----|
|------5---5-------5---5-------5---5-------7---------|Gtrs
|----7-------7---7-------7---7-------7---7-----------| I&II
|--0-----------8-----------7-----------8------7------|
|----------------------------------------------------|


|----------------------------------------------------|
|----------------------------------------------------|
|--2----(2)----------------------------2---2---------|Gtrs
|--2----(2)----3-----&5---2---------2-3---3--2-2-2--| III&IV
|--0----(0)----3-----&5---2---------2-3---3--2-2-2--|
|--------------1-----&3---------------1---1---------|
| |
|--------------------0----------------------------0--|
|--------0-----------------------0--------------0----|
|------5---5-------5---5-------5---5-------7---------|Gtrs
|----7-------7---7-------7---7-------7---7-----------| I&II
|--0-----------8-----------7-----------8------7------|
|----------------------------------------------------|


Riff N (Play A Total Of 1 Time)
|-------------------------------------------------|
|-------------------------------------------------|
|--2----------------------------------------------|Gtrs
|--2-----------------------3----------2-----------| III&IV
|--0-----------------------3----------2-----------|
|--------------------------1----------0-----------|
| |
|-------------------------------------0-----------|
|--1------3-1-0-1----------1----3-1-3-------0--0--|
|---------------------2--2------------------------|Gtrs
|-------------------------------------------------| I&II
|-------------------------------------------------|
|-------------------------------------------------|



*=artifical harmonic
|-------------------------------------------------|
|-------------------------------------------------|
|--2----------------------------------------4*----|Gtrs
|--2-----------------------3----------2-----------| III&IV
|--0-----------------------3----------2-----------|
|--------------------------1----------0-----------|
| |
|-------------------------------------0-----------|
|--1------3-1-0-1----------1----3-1-3-------0-----|
|---------------------2--2------------------------|Gtrs
|-------------------------------------------------| I&II
|-------------------------------------------------|
|-------------------------------------------------|


Riff O (Play A Total Of 1 Time)
|------------------------------------------------------|
|------------------------------------------------------|
|--2---------------------------------------------------|
|--2-------------2-----------5------------3-----3-3-3--|
|--0-------------2-----------5------------3-----3-3-3--|
|----------------0-----------3------------1-----1-1-1--|
| . . . |
| |
|--0-----1--0----0-------------------------------------|
|--------------3-------0--1--3-----1-0--------------1--|
|--------------------------------------0--2-----2-4----|Gtrs
|------------------------------------------------------| I&II
|------------------------------------------------------|
|------------------------------------------------------|


|------------------------------------------------------|
|------------------------------------------------------|
|--2---------------------------------------------------|
|--2-------------2-------------------------------------|
|--0-------------2----------5-----5-----3-----3-5-3----|
|----------------0----------3-333-3-333-1-111-1-3-1----|
| ... ... ... |
| |
|--0-----1--0----0----------*--------------------------|
|--------------3-------0--fb6---(6)+r~~-6-----6-5-6----|
|------------------------------------------------------|Gtrs
|------------------------------------------------------| I&II
|------------------------------------------------------|
|------------------------------------------------------|
*note is pre-bent up a step.


Play Similie Of Riff H
Repeat Riff I
Play Similie of Riff L

Riff P
|------------------------------------------------------------|
|------------------------------------------------------------|Gtrs
|------------------------------------------------------------| III&IV
|-----------------------------2------2------7------9---------|
|-5------5------3------3------0-0000-0-0000-5-5555-7-7777----|
|-3-3333-3-3333-1-1111-1-1111--------------------------------|


|----------------------------------------------------|
|--------------------------------------h-------------|
|--5--5-7-5-4-5----------------7----7-7-9~-----------|Gtr
|---------------7-7~--7-&10-10---10------------------| III
|----------------------------------------------------|
|----------------------------------------------------|
| |
|----------------------------------------------------|
|----------------------------------------------------|
|--2-------------------------------------------------|Gtr
|--2----------------------3-------------2------------| IV
|--0----------------------3-------------2------------|
|-------------------------1-------------0------------|



|------------------------------------*=artificial----|
|---------------------------------------harmonic-----|
|-9999-9-10-9-7-9--------7-7---------*---------------|Gtr
|-----------------9-9-10-----10-9----7fb+r+b+r~------| III
|---------------------------------10-----------------|
|----------------------------------------------------|
| |
|----------------------------------------------------|
|----------------------------------------------------|
|-2-----2--------------------------------------------|Gtr
|-2-----2-----2-----2-----5-----5-----3-----3--5--3--| IV
|-0-000-0-000-2-----2-----5-----5-----3-----3--5--3--|
|-------------0-000-0-000-3-333-3-333-1-111-1--3--1--|
... ... ... ... ... ... ... . . .


|--------------------------------------------------|
|--------------------------------------------------|
|--------------------------------------------------|Gtr
|-7-&14-14-15-14-15-1712-12-----9~---3-2-0-2-0----| III
|-----------------------------------------------2--|
|--------------------------------------------------|
| . . . . . . |
| |
|--------------------------------------------------|
|--------------------------------------------------|
|-----5-----5--------------------9-----------------|Gtr
|-----5-----5-----55-----5-------9----3-2-0-2-0----| IV
|-----3-333-3-333-32-222-2-222---7--------------2--|
|--------------------------------------------------|
. . . . . .

|----------|
|----------|
|-2-2-2-2--|Gtrs III & IV
|-2-2-2-2--|
|-0-0-0-0--|
|----------|




Insanitys Crescendotab - Dark Tranquillity akoru
Insanitys Crescendotab - Dark Tranquillity notaları,
Insanitys Crescendotab - Dark Tranquillity tablar bas tablar akord akor oku



iletisim  Reklam  Gizlilik sözlesmesi
Diger sitelerimize baktiniz mi ? Radyo Dinle - milli piyango sonuclari - 2017 yeni yil mesajlari - Güzel sözler Sohbet 2003- 2016 Canim.net Her hakki saklidir.