Güzel sözler | Fıkra | Hikaye | Şiir - Şair| Şarkı sözleri | Türküler | Sohbet odaları | Rüya | Sağlık | Biyografi | islam | Güzeller | Paylaş


Canim.net
Akorlar
Akor Ekle
Şarkı sözleri
Yabancı şarkı sözleri
Çeviriler
Türkü
A  B  C  Ç  D  E  F  G  Ğ  H  I  İ  J  K  L  M  N  O  Ö  P  R  S  Ş  T  U  Ü  V  Y  Z 



In The Shadows Bass - Children of Bodom



E ||--------------------------------|--------------------------------|
B ||--------------------------------|--------------------------------|
F#||--------------------------------|--------------------------------|
C#||--0-0--0-0-0-0-0-0-0--0-0-0-0-0-|--0-0--0-0-0-0-0-0-0--0-0-0-0-0-|



--------------------------------|--------------------------------|
--------------------------------|--------------------------------|
--------------------------------|--------------------------------|
--0-0--0-0-0-0-0-0-0--0-0-0-0-0-|--0-0--0-0-0-0-0-0-0--0-0-0-0-0-|



--------------------------------|--------------------------------|
--------------------------------|--------------------------------|
--------------------------------|--------------------------------|
--0-0--0-0-0-0-0-0-0--0-0-0-0-0-|--0-0--0-0-0-0-0-0-0--0-0-0-0-0-|



------------------------------|------------------------------|
------------------------------|------------------------------|
--2--2-2-2--2-2-2--2-2-2--2-2-|--2--2-2-2--2-2-2--2-2-2--2-2-|
------------------------------|------------------------------|



------------------------------|------------------------------|
------------------------------|------------------------------|
------------------------------|------------------------------|
--2--2-2-2--2-2-2--2-2-2--2-2-|--2--2-2-2--2-2-2--2-2-2--2-2-|



------------------------------|------------------------------|
------------------------------|------------------------------|
--2--2-2-2--2-2-2--2-2-2--2-2-|--2--2-2-2--2-2-2--2-2-2--2-2-|
------------------------------|------------------------------|



------------------------------|------------------------------|---|
------------------------------|------------------------------|---|
------------------------------|------------------------------|---|
--2--2-2-2--2-2-2--2-2-2--2-2-|--2--2-2-2--2-2-2--2-2-2--2-2-|---|



------------------------------|---|---|------------------------------|
------------------------------|---|---|------------------------------|
------------------------------|---|---|--2--2-2-2--2-2-2--2-2-2--2-2-|
--0-0-0--0-0-0--0-0-0--0-0-0--|---|---|------------------------------|



------------------------------|------------------------------|
------------------------------|------------------------------|
--2--2-2-2--2-2-2--2-2-2--2-2-|------------------------------|
------------------------------|--2--2-2-2--2-2-2--2-2-2--2-2-|



------------------------------|------------------------------|
------------------------------|------------------------------|
------------------------------|--2--2-2-2--2-2-2--2-2-2--2-2-|
--2--2-2-2--2-2-2--2-2-2--2-2-|------------------------------|



------------------------------|------------------------------|
------------------------------|------------------------------|
--2--2-2-2--2-2-2--2-2-2--2-2-|------------------------------|
------------------------------|--2--2-2-2--2-2-2--2-2-2--2-2-|



------------------------------|------------------------------|
------------------------------|------------------------------|
------------------------------|--2--2-2-2--2-2-2--2-2-2--2-2-|
--2--2-2-2--2-2-2--2-2-2--2-2-|------------------------------|



------------------------------|------------------------------|
------------------------------|------------------------------|
--2--2-2-2--2-2-2--2-2-2--2-2-|------------------------------|
------------------------------|--2--2-2-2--2-2-2--2-2-2--2-2-|



------------------------------|------------------------------|
------------------------------|------------------------------|
------------------------------|--2--2-2-2--2-2-2--2-2-2--2-2-|
--2--2-2-2--2-2-2--2-2-2--2-2-|------------------------------|



------------------------------|------------------------------|
------------------------------|------------------------------|
--2--2-2-2--2-2-2--2-2-2--2-2-|------------------------------|
------------------------------|--2--2-2-2--2-2-2--2-2-2--2-2-|



------------------------------|---|---------------------|---|
------------------------------|---|---------------------|---|
------------------------------|---|---------------------|---|
--2--2-2-2--2-2-2--2-2-2--2-2-|---|----4--2--4----------|---|



---------------------|---|---|---|---|---|---|---|---|-------------------------|
---------------------|---|---|---|---|---|---|---|---|-------------------------|
---------------------|---|---|---|---|---|---|---|---|-------------------------|
----4--2--4----------|---|---|---|---|---|---|---|---|--4--4--6--7----6--4--2--|



-----------------------|-------------------------|------------------|
-----------------------|-------------------------|------------------|
-----------------------|-----------4-------------|------------------|
--4--4--2--4------4----|--4--6--7-------7--6--7--|------------------|



-------------------------|-----------------------|-------------------------|
-------------------------|-----------------------|-------------------------|
-------------------------|-----------------------|-----------4-------------|
--4--4--6--7----6--4--2--|--4--4--2--4------4----|--4--6--7-------7--6--7--|



------------------|-------------------|------------------|------------------|
------------------|-------------------|------------------|------------------|
------------------|-------------------|------------------|------------------|
------------------|--4----------------|------------------|------------------|



------------------|-------------------|------------------|------------------|
------------------|-------------------|------------------|------------------|
------------------|-------------------|------------------|------------------|
------------------|----6--------------|------------------|------------------|



------------------|----------------------|--------------------------|
------------------|----------------------|--------------------------|
------------------|----------------------|--------------------------|
------------------|--4--4--4--4----------|--4--4--4--4--4--4--4--4--|



----------------------|--------------------------|----------------------|
----------------------|--------------------------|----------------------|
----------------------|--------------------------|----------------------|
--4--4--4--4----------|--7--7--7--7--7--7--7--7--|--2--2--2--2----------|



--------------------------|----------------------|--------------------------|
--------------------------|----------------------|--------------------------|
--------------------------|----------------------|--------------------------|
--6--6--6--6--6--6--6--4--|--2--2--2--2----------|--2--2--2--2--2--2--2--2--|



----------------------|--------------------------|----------------------|
----------------------|--------------------------|----------------------|
----------------------|--------------------------|----------------------|
--4--4--4--4----------|--4--4--4--4--4--4--4--4--|--4--4--4--4----------|



--------------------------|----------------------|--------------------------|
--------------------------|----------------------|--------------------------|
--------------------------|----------------------|--------------------------|
--7--7--7--7--7--7--7--7--|--2--2--2--2----------|--6--6--6--6--6--6--6--4--|



----------------------|---|--------------------------|
----------------------|---|--------------------------|
----------------------|---|--2-2-2--2----2-2-2--2----|
--2--2--2--2----------|---|--------------------------|



--------------------------|--------------------------|
--------------------------|--------------------------|
--2-2-2--2----2-2-2--2----|--------------------------|
--------------------------|--2-2-2--2----2-2-2--2----|



--------------------------|--------------------------|
--------------------------|--------------------------|
--------------------------|--2-2-2--2----2-2-2--2----|
--2-2-2--2----2-2-2--2----|--------------------------|



--------------------------|--------------------------|
--------------------------|--------------------------|
--2-2-2--2----2-2-2--2----|--------------------------|
--------------------------|--2-2-2--2----2-2-2--2----|



--------------------------|--------------------------|------------------------|
--------------------------|--------------------------|------------------------|
--------------------------|--2-2-2--2----2-2-2--2----|--2-2-2--2----2----4----|
--2-2-2--2----2-2-2--2----|--------------------------|------------------------|



---|---|------------------------|------------------------|
---|---|------------------------|------------------------|
---|---|--6----4----4--4--4--4--|--6---------------------|
---|---|------------------------|-------6----6--6--6--6--|



------------------------|------------------------|------------------------|
------------------------|------------------------|------------------------|
--6----4----4--4--4--4--|--6---------------------|--6----4----4--4--4--4--|
------------------------|-------6----6--6--6--6--|------------------------|



------------------------|------------------------|------------------------|
------------------------|------------------------|------------------------|
--6---------------------|--6----4----4--4--4--4--|--6---------------------|
-------6----6--6--6--6--|------------------------|-------6----6--6--6--6--|



-------------------|---|---|---|---|------------------------|
-------------------|---|---|---|---|--------------1---------|
--6----------------|---|---|---|---|--------2--1-------0----|
-------------------|---|---|---|---|--0---0-----------------|



------------------------|------------------------|------------------------|
--------------1----4----|--------------1---------|--------------1----4----|
--------2--1------------|--------2--1-------0----|--------2--1------------|
--0---0-----------------|--0---0-----------------|--0---0-----------------|



------------------------|------------------------|------------------------|
--------------1---------|--------------1----4----|--------------1---------|
--------2--1-------0----|--------2--1------------|--------2--1-------0----|
--0---0-----------------|--0---0-----------------|--0---0-----------------|



------------------------|------|------------------------|
--------------1----4----|------|--------------1----4----|
--------2--1------------|------|--------2--1------------|
--0---0-----------------|------|--0---0-----------------|



------------------------|------------------------|------------------------|
--------------1---------|--------------1----4----|--------------1---------|
--------2--1-------0----|--------2--1------------|--------2--1-------0----|
--0---0-----------------|--0---0-----------------|--0---0-----------------|



------------------------|------------------------|------------------------|
--------------1----4----|--------------1---------|--------------1----4----|
--------2--1------------|--------2--1-------0----|--------2--1------------|
--0---0-----------------|--0---0-----------------|--0---0-----------------|



------------------------|----------------------------|--------------------|
-----4--3--1-----1------|----------------------------|--------------------|
--4-----------4---------|----------6--6--6--6--6--6--|----------6----6----|
------------------------|----------------------------|--------------------|



------------------------------|------------------------------|
------------------------------|------------------------------|
--4--4--4--4--4--4--6----6----|--4--4--4--4--4--4--9----9----|
------------------------------|------------------------------|



------------------------------|------------------------------|
------------------------------|------------------------------|
--4--4--4--4--4--4--6----6----|--4--4--4--4--4--4--6----6----|
------------------------------|------------------------------|



------------------------------|------------------------------|
------------------------------|------------------------------|
--4--4--4--4--4--4--6----6----|--4--4--4--4--4--4--9----9----|
------------------------------|------------------------------|



------------------------------|------------------------------|
------------------------------|------------------------------|
--4--4--4--4--4--4--6----6----|--4--4--4--4--4--4--6----6----|
------------------------------|------------------------------|



------------------------------|------------------------------|
------------------------------|------------------------------|
--4--4--4--4--4--4--6----6----|--4--4--4--4--4--4--9----9----|
------------------------------|------------------------------|



------------------------------|---------------------|
------------------------------|---------------------|
--4--4--4--4--4--4--6----6----|--4--------6----6----|
------------------------------|---------------------|



------------------------------|------------------------------|
------------------------------|------------------------------|
--4--4--4--4--4--4--6----6----|--4--4--4--4--4--4--9----9----|
------------------------------|------------------------------|



------------------------------|-------------------|--------------------------|
------------------------------|-------------------|--------------------------|
--4--4--4--4--4--4--6----6----|--4----------------|--2-2-2--2----2-2-2--2----|
------------------------------|-------------------|--------------------------|



--------------------------|--------------------------|
--------------------------|--------------------------|
--2-2-2--2----2-2-2--2----|--------------------------|
--------------------------|--2-2-2--2----2-2-2--2----|



--------------------------|--------------------------|
--------------------------|--------------------------|
--------------------------|--2-2-2--2----2-2-2--2----|
--2-2-2--2----2-2-2--2----|--------------------------|



--------------------------|--------------------------|
--------------------------|--------------------------|
--2-2-2--2----2-2-2--2----|--------------------------|
--------------------------|--2-2-2--2----2-2-2--2----|



--------------------------|---------------------|--------------------|
--------------------------|---------------------|--------------------|
--------------------------|---------------------|--------------------|
--2-2-2--2----2-2-2--2----|--11--------9--------|--6--------7--------|



--------------------|---------------------|---------------------|
--------------------|---------------------|---------------------|
--------------------|---------------------|---------------------|
--4--------6--------|--2----2----4--------|--11--------9--------|



--------------------|--------------------|---------------------|
--------------------|--------------------|---------------------|
--------------------|--------------------|---------------------|
--6--------7--------|--4--------6--------|--2----2----4--------|



---------------------|--------------------|--------------------|
---------------------|--------------------|--------------------|
---------------------|--------------------|--------------------|
--11--------9--------|--6--------7--------|--4--------6--------|



---------------------|---------------------|--------------------|
---------------------|---------------------|--------------------|
---------------------|---------------------|--------------------|
--2----2----4--------|--11--------9--------|--6--------7--------|



--------------------|---------------------|---------------------|
--------------------|---------------------|---------------------|
--------------------|---------------------|---------------------|
--4--------6--------|--2----2----4--------|--11--------9--------|



--------------------|--------------------|---------------------|
--------------------|--------------------|---------------------|
--------------------|--------------------|---------------------|
--6--------7--------|--4--------6--------|--2----2----4--------|



---------------------|--------------------|--------------------|
---------------------|--------------------|--------------------|
---------------------|--------------------|--------------------|
--11--------9--------|--6--------7--------|--4--------6--------|



---------------------|----------|----------|----------|----------|----------|
---------------------|----------|----------|----------|----------|----------|
---------------------|----------|----------|----------|----------|----------|
--2----2----4--------|----------|----------|----------|----------|----------|



----------|----------|----------|--------------------------|
----------|----------|----------|--------------------------|
----------|----------|----------|--------------------------|
----------|----------|----------|--16----16----16----16----|



--------------------------|--------------------------|
--------------------------|--------------------------|
--------------------------|--------------------------|
--16----16----14----14----|--12----12----12----12----|



--------------------------|--------------------------|
--------------------------|--------------------------|
--------------------------|--------------------------|
--12----12----14----14----|--16----16----16----16----|



--------------------------|--------------------------|
--------------------------|--------------------------|
--------------------------|--12----12----12----14----|
--16----16----14----14----|--------------------------|



--------------------------|--------------------------|
--------------------------|--------------------------|
--16----16----16----16----|--------------------------|
--------------------------|--16----16----16----16----|



--------------------------|--------------------------|
--------------------------|--------------------------|
--------------------------|--------------------------|
--16----16----14----14----|--12----12----12----12----|



--------------------------|--------------------------|
--------------------------|--------------------------|
--------------------------|--------------------------|
--12----12----14----14----|--16----16----16----16----|



--------------------------|--------------------------|
--------------------------|--------------------------|
--------------------------|--12----12----12----14----|
--16----16----14----14----|--------------------------|



--------------------------|--------------------------|
--------------------------|--------------------------|
--16----16----16----16----|--------------------------|
--------------------------|--16----16----16----16----|



--------------------------|--------------------------|
--------------------------|--------------------------|
--------------------------|--------------------------|
--16----16----14----14----|--12----12----12----12----|



--------------------------|--------------------------|
--------------------------|--------------------------|
--------------------------|--------------------------|
--12----12----14----14----|--16----16----16----16----|



--------------------------|--------------------------|
--------------------------|--------------------------|
--------------------------|--12----12----12----14----|
--16----16----14----14----|--------------------------|



--------------------------|--------------------------|
--------------------------|--------------------------|
--16----16----16----16----|--------------------------|
--------------------------|--16----16----16----16----|



--------------------------|--------------------------|
--------------------------|--------------------------|
--------------------------|--------------------------|
--16----16----14----14----|--12----12----12----12----|



--------------------------|--------------------------|
--------------------------|--------------------------|
--------------------------|--------------------------|
--12----12----14----14----|--16----16----16----16----|



--------------------------|--------------------------|
--------------------------|--------------------------|
--------------------------|--12----12----12----14----|
--16----16----14----14----|--------------------------|



--------------------------|------------------------------|
--------------------------|------------------------------|
--16----16----16----16----|------------------------------|
--------------------------|--7--7-7-7--7-7-7--7-7-7--7-7-|



------------------------------|------------------------------|
------------------------------|------------------------------|
------------------------------|------------------------------|
--7--7-7-7--7-7-7--7-7-7--7-7-|--6--6-6-6--6-6-6--6-6-6--6-6-|



------------------------------|------------------------------|
------------------------------|------------------------------|
------------------------------|------------------------------|
--6--6-6-6--6-6-6--6-6-6--6-6-|--7--7-7-7--7-7-7--7-7-7--7-7-|



------------------------------|------------------------------|
------------------------------|------------------------------|
------------------------------|------------------------------|
--7--7-7-7--7-7-7--7-7-7--7-7-|--6--6-6-6--6-6-6--6-6-6--6-6-|



------------------------------|--------------------------|
------------------------------|--------------------------|
------------------------------|--------------------------|
--6--6-6-6--6-6-6--6-6-6--6-6-|--16----16----16----16----|



--------------------------|--------------------------|
--------------------------|--------------------------|
--------------------------|--------------------------|
--16----16----14----14----|--12----12----12----12----|



--------------------------|--------------------------|
--------------------------|--------------------------|
--------------------------|--------------------------|
--12----12----14----14----|--16----16----16----16----|



--------------------------|--------------------------|
--------------------------|--------------------------|
--------------------------|--12----12----12----14----|
--16----16----14----14----|--------------------------|



--------------------------||
--------------------------||
--16----16----16----16----||
--------------------------||




In The Shadows Bass - Children of Bodom akoru
In The Shadows Bass - Children of Bodom notaları,
In The Shadows Bass - Children of Bodom tablar bas tablar akord akor oku



iletisim  Reklam  Gizlilik sözlesmesi
Diger sitelerimize baktiniz mi ? Radyo Dinle - milli piyango sonuclari - 2017 yeni yil mesajlari - Güzel sözler Sohbet 2003- 2016 Canim.net Her hakki saklidir.