Güzel sözler | Fıkra | Hikaye | Şiir - Şair| Şarkı sözleri | Türküler | Sohbet odaları | Rüya | Sağlık | Biyografi | islam | Güzeller | Paylaş


Canim.net
Akorlar
Akor Ekle
Şarkı sözleri
Yabancı şarkı sözleri
Çeviriler
Türkü
A  B  C  Ç  D  E  F  G  Ğ  H  I  İ  J  K  L  M  N  O  Ö  P  R  S  Ş  T  U  Ü  V  Y  Z 



In The Shadow - The Rasmus



the rasmus in_the_shadow


|-------------------------------------------------------------------||
|-------------------------------------------------------------------||
|-------------------------------------------------------------------||
|--------2---------------------------------2------------------------||
|-5-5--5---5-2--0------------0-2--4-5-5--5---5-2--0--4-4--6-6--7----||
|-----------------2-2--2-1-2-------------------------2-2--4-4--5----||


Gtr I

|----------------------------------------------------------------------|
|----------------------------------------------------------------------|
|-7-7--7-7-7-------------------------6--7---7-7-7----------------------|
|-7-7--7-7-7-------4-4--4-4-4--------6--7---7-7-7---------4-4--6--7----|
|-5-5--5-5-5--4-0--4-4--4-4-4--0-2---4--5---5-5-5---4--0--4-4--6--7----|
|------------------2-2--2-2-2-----------------------------2-2--4--5----|



|---------------------------------------------------------------------------------------------------------------|
|---------------------------------------------------------------------------------------------------------------|
|-7-7-7-7-7-7-7-7-------------------4-4-4-4-4-4-4-4-------------------------------------------------------------|
|-7-7-7-7-7-7-7-7--4-4-4-4-4-4-4-4--4-4-4-4-4-4-4-4--4-4-4-4-4-4-4-4---------4---3--2---------------------------|
|-5-5-5-5-5-5-5-5--4-4-4-4-4-4-4-4--2-2-2-2-2-2-2-2--4-4-4-4-4-4-4-4---------4---3--2---------------------------|
|------------------2-2-2-2-2-2-2-2-------------------2-2-2-2-2-2-2-2---------2---1--0---------------------------|




|--------------------------------------------------------------------------------------|
|--------------------------------------------------------------------------------------|
|-7-7-7-7-7-7-7-7-7-7-7-7-7-7-7-7------------------------------------------------------|
|-7-7-7-7-7-7-7-7-7-7-7-7-7-7-7-7-------4-4-4-4-4-4-4-4-4-4-4-4-4-4-4-4-----4--3--2----|
|-5-5-5-5-5-5-5-5-5-5-5-5-5-5-5-5-------4-4-4-4-4-4-4-4-4-4-4-4-4-4-4-4-----4--3--2----|
|---------------------------------------2-2-2-2-2-2-2-2-2-2-2-2-2-2-2-2-----2--1--0----|





In The Shadow - The Rasmus akoru
In The Shadow - The Rasmus notaları,
In The Shadow - The Rasmus tablar bas tablar akord akor oku



iletisim  Reklam  Gizlilik sözlesmesi
Diger sitelerimize baktiniz mi ? Radyo Dinle - milli piyango sonuclari - 2017 yeni yil mesajlari - Güzel sözler Sohbet 2003- 2016 Canim.net Her hakki saklidir.