Güzel sözler | Fıkra | Hikaye | Şiir - Şair| Şarkı sözleri | Türküler | Sohbet odaları | Rüya | Sağlık | Biyografi | islam | Güzeller | Paylaş


Canim.net
Akorlar
Akor Ekle
Şarkı sözleri
Yabancı şarkı sözleri
Çeviriler
Türkü
A  B  C  Ç  D  E  F  G  Ğ  H  I  İ  J  K  L  M  N  O  Ö  P  R  S  Ş  T  U  Ü  V  Y  Z 



In Shadows And Dusttab - Kataklysm



___ - palm mute
& - slide


INTRO:

|-------------------------------| |----------------|
|-------------------------------| |----------------|
|-------------------------------| |----------------|
|-------------------------------| |----------------|
|-2------3-----5---------3&65--| |-2------3-----5-|
|-0--0-0-1-0-0-3-0-0-0-0-1&43--| 3x |-0--0-0-1-0-0-3-|
___ ___ _______ ___ ___


RIFF A:

|------------------------------------------|
|------------------------------------------|
|------------------------------------------|
|------------------------------------------|
|-2------------3--------5------------3&65-|
|-0-0000000000-1-000000-3-0000000000-1&43-| 3x
__________ ______ __________

|-------------------------|
|-------------------------|
|-------------------------|
|-------------------------|
|-2------------3--------5-|
|-0-0000000000-1-000000-3-|
__________ ______


RIFF B:

|--------------------------------|
|--------------------------------|
|--------------------------------|
|-2------5-----3-----------------|
|-2------5-----3---------6-5-6-5-|
|-0--0-0-3-0-0-1-0-0-0-0-4-3-4-3-| 8x
___ ___ _______________


RIFF Ca:
(Gtr 1)
|----------------------------------------------------------------------------|
|----------------------------------------------------------------------------|
|----------------------------------------------------------------------------|
|----------------------------------------------------------------3-6-6-3-6-6-|
|-----------------------------8--8--8----------------------------3-6-6-3-6-6-|
|-00000000000000000000000000-10-10-10-00000000000000000000000000-1-4-4-1-4-4-|
__________________________ __________________________

(Gtr 2)
|----------------------------------------------------------------------------|
|----------------------------------------------------------------------------|
|----------------------------------------------------------------------------|
|-2--------------------------------------------------------------3-6-6-3-6-6-|
|-2---------------------------8--8--8-7--------------------------3-6-6-3-6-6-|
|-0--------------------------10-10-10-0--------------------------1-4-4-1-4-4-|

(Gtr 1 & 2)
|----------------------------------------------------------------------------|
|----------------------------------------------------------------------------|
|----------------------------------------------------------------------------|
|----------------------------------------------------------------3-6-6-3-6-6-|
|-----------------------------8--8--8----------------------------3-6-6-3-6-6-|
|-00000000000000000000000000-10-10-10-00000000000000000000000000-1-4-4-1-4-4-|
__________________________ __________________________ 3x


RIFF D:

|---------------------------------------------------------|
|---------------------------------------------------------|
|---------------------------------------------------------|
|-2-2--3-2-2--5-2-2--3-6--5-3-2-2--3-2-2--5-2-2--3-6--5-3-|
|-2-2--3-2-2--5-2-2--3-6--5-3-2-2--3-2-2--5-2-2--3-6--5-3-|
|-0-0--1-0-0--3-0-0--1-4--3-1-0-0--1-0-0--3-0-0--1-4--3-1-|

(Gtr 1)
|---------------------------------------------------------|
|---------------------------------------------------------|
|---------------------------------------------------------|
|-2-2--3-2-2--5-2-2--3-6--5-3-2-2--3-2-2--5-2-2--3-6--5-3-|
|-2-2--3-2-2--5-2-2--3-6--5-3-2-2--3-2-2--5-2-2--3-6--5-3-|
|-0-0--1-0-0--3-0-0--1-4--3-1-0-0--1-0-0--3-0-0--1-4--3-1-|

(Gtr 2)
|---------------------------------------------------------|
|---------------------------------------------------------|
|---------------------------------------------------------|
|-------------9---------------------------9---------------|
|---7~-8-7~-----7~--9-10--8-7-7~---8-7~-----7~--9-10--8-7-|
|---------------------------------------------------------|


RIFF E:

|--------------------------------| |-----------------|
|--------------------------------| |-----------------|
|--------------------------------| |-----------------|
|-2-----3-2-----5-2-------6------| |-2-----3-2-----5-|
|-2-2-2-3-2-2-2-5-2-2-2-3-6--5-3-| |-2-2-2-3-2-2-2-5-|
|-0-0-0-1-0-0-0-3-0-0-0-1-4--3-1-| 3x |-0-0-0-1-0-0-0-3-|
___ ___ _____ ___ ___ ___


RIFF A


RIFF Cb:

|----------------------------------------------------------------------------|
|----------------------------------------------------------------------------|
|----------------------------------------------------------------------------|
|----------------------------------------------------------------3-6-6-3-6-6-|
|-----------------------------8--8--8----------------------------3-6-6-3-6-6-|
|-00000000000000000000000000-10-10-10-00000000000000000000000000-1-4-4-1-4-4-|
__________________________ __________________________ 4x


OUTRO:

|----------| |---|
|----------| |---|
|----------| |---|
|-2--5-8---| |-2-|
|-2--5-8---| |-2-|
|-0--3-6-0-| 9x |-0-|




In Shadows And Dusttab - Kataklysm akoru
In Shadows And Dusttab - Kataklysm notaları,
In Shadows And Dusttab - Kataklysm tablar bas tablar akord akor oku



iletisim  Reklam  Gizlilik sözlesmesi
Diger sitelerimize baktiniz mi ? Radyo Dinle - milli piyango sonuclari - 2017 yeni yil mesajlari - Güzel sözler Sohbet 2003- 2016 Canim.net Her hakki saklidir.