Güzel sözler | Fıkra | Hikaye | Şiir - Şair| Şarkı sözleri | Türküler | Sohbet odaları | Rüya | Sağlık | Biyografi | islam | Güzeller | Paylaş


Canim.net
Akorlar
Akor Ekle
Şarkı sözleri
Yabancı şarkı sözleri
Çeviriler
Türkü
A  B  C  Ç  D  E  F  G  Ğ  H  I  İ  J  K  L  M  N  O  Ö  P  R  S  Ş  T  U  Ü  V  Y  Z 



I`m Gone tab - Black Sabbath



[f]
-----------------------------------------------------------
-----------------------------------------------------------
-----------------------------------------------------------
----------------------------2~~-----------------------2~---
------------(3)&5-4~------2----------(33)&5-4~-------------
-(16)s-0-0---------4p0-4------0-0--------------0-0-4------
{..pm.} {.pm.}

-----------------------------------------------------
-----------------------------------------------------
-----------------------------------------------------
----------------------2~~-----------------------2~---
------(3)&5-4~------2----------(3)&5-4~~-------------
--0-0---------4p0-4------0-0--------------0-0-4------
{..pm.} {.pm.}

-----------------------------------------------------
-----------------------------------------------------
-----------------------------------------------------
----------------------2~~-----------------------2~---
------(3)&5-4~------2----------(3)&5-4~~-------------
--0-0---------4p0-4------0-0--------------0-0-4------
{..pm.} {.pm.}

-----------------------------------------------------
-----------------------------------------------------
-----------------------------------------------------
----------------------2~~-----------------------2~---
------(3)&5-4~------2----------(3)&5-4~~-------------
--0-0---------4p0-4------0-0--------------0-0-4------
{..pm.} {.pm.}
Yeah, yeah In a

-----------------------------------------------------
-----------------------------------------------------
-----------------------------------------------------
----------------------2~~-----------------------2~---
------(3)&5-4~------2----------(3)&5-4~~-------------
--0-0---------4p0-4------0-0--------------0-0-4------
{..pm.} {.pm.}
dream I had a final vision, How come you just wanna be my friend?

-----------------------------------------------------
-----------------------------------------------------
-----------------------------------------------------
----------------------2~~-----------------------2~---
------(3)&5-4~------2----------(3)&5-4~~-------------
--0-0---------4p0-4------0-0--------------0-0-4------
{..pm.} {.pm.}
How come? Will you ever

-----------------------------------------------------
-----------------------------------------------------
-----------------------------------------------------
----------------------2~~-----------------------2~---
------(3)&5-4~------2----------(3)&5-4~~-------------
--0-0---------4p0-4------0-0--------------0-0-4------
{..pm.} {.pm.}
have justified, the hidden meaning in your time again?

-----------------------------------------------------
-----------------------------------------------------
-----------------------------------------------------
----------------------2~~-----------------------2~---
------(3)&5-4~------2----------(3)&5-4~~-------------
--0-0---------4p0-4------0-0--------------0-0-4------
{..pm.} {.pm.}
hey yeah!

CHOURSE
BA#A B A# A B A~
---------------------------------------------------------------------
---------------------------------------------------------------------
---------------------------------------------------------------------
---------------------------------------------------------------------
---------987------------9--8--7------------987------------9-7~---
-0---0-0-765---0---0-0--7--6--5---0----0-0-765---0---0-0--7-5~---
{pm} {pm}
I`m gone, gone just like the past

BA#A B A# A B A~
---------------------------------------------------------------------
---------------------------------------------------------------------
---------------------------------------------------------------------
---------------------------------------------------------------------
---------987------------9--8--7------------987------------9-7~---
-0---0-0-765---0---0-0--7--6--5---0----0-0-765---0---0-0--7-5~---
{pm} {pm} {pm}
Because I`m gone and you won`t be the last

BA#A B A# A B A~
---------------------------------------------------------------------
---------------------------------------------------------------------
---------------------------------------------------------------------
---------------------------------------------------------------------
---------987------------9--8--7------------987------------9-7~---
-0---0-0-765---0---0-0--7--6--5---0----0-0-765---0---0-0--7-5~---
{pm} {pm} {pm}
`Cause I`ll be strong Can you hear my voice?

BA#A B A# A B A~
---------------------------------------------------------------------
---------------------------------------------------------------------
---------------------------------------------------------------------
---------------------------------------------------------------------
---------987------------9--8--7------------987------------9-7~---
-0---0-0-765---0---0-0--7--6--5---0----0-0-765---0---0-0--7-5~---
{pm} {pm} {pm}
Because I`m gone! Hey!!

-----------------------------------------------------
-----------------------------------------------------
-----------------------------------------------------
----------------------2~~-----------------------2~---
------(3)&5-4~------2----------(3)&5-4~~-------------
--0-0---------4p0-4------0-0--------------0-0-4------
{..pm.} {.pm.}
In an ordinary complication, I`ve come to my realization

-----------------------------------------------------
-----------------------------------------------------
-----------------------------------------------------
----------------------2~~-----------------------2~---
------(3)&5-4~------2----------(3)&5-4~~-------------
--0-0---------4p0-4------0-0--------------0-0-4------
{..pm.} {.pm.}
Hey, I`ve come. Well

-----------------------------------------------------
-----------------------------------------------------
-----------------------------------------------------
----------------------2~~-----------------------2~---
------(3)&5-4~------2----------(3)&5-4~~-------------
--0-0---------4p0-4------0-0--------------0-0-4------
{..pm.} {.pm.}
you came to me with every skill, how come I had let you in?

-----------------------------------------------------
-----------------------------------------------------
-----------------------------------------------------
----------------------2~~-----------------------2~---
------(3)&5-4~------2----------(3)&5-4~~-------------
--0-0---------4p0-4------0-0--------------0-0-4------
{..pm.} {.pm.}
Here I come! huh......

CHOURSE
BA#A B A# A B A~
---------------------------------------------------------------------
---------------------------------------------------------------------
---------------------------------------------------------------------
---------------------------------------------------------------------
---------987------------9--8--7------------987------------9-7~---
-0---0-0-765---0---0-0--7--6--5---0----0-0-765---0---0-0--7-5~---
{pm} {pm}
I`m gone, gone just like the past

BA#A B A# A B A~
---------------------------------------------------------------------
---------------------------------------------------------------------
---------------------------------------------------------------------
---------------------------------------------------------------------
---------987------------9--8--7------------987------------9-7~---
-0---0-0-765---0---0-0--7--6--5---0----0-0-765---0---0-0--7-5~---
{pm} {pm} {pm}
Because I`m gone and you won`t be the last

BA#A B A# A B A~
---------------------------------------------------------------------
---------------------------------------------------------------------
---------------------------------------------------------------------
---------------------------------------------------------------------
---------987------------9--8--7------------987------------9-7~---
-0---0-0-765---0---0-0--7--6--5---0----0-0-765---0---0-0--7-5~---
{pm} {pm} {pm}
`Cause I`ll be strong Now, can you hear my voice?

BA#A B A# A B A~
---------------------------------------------------------------------
---------------------------------------------------------------------
---------------------------------------------------------------------
---------------------------------------------------------------------
---------987------------9--8--7------------987------------9-7~---
-0---0-0-765---0---0-0--7--6--5---0----0-0-765---0---0-0--7-5~---
{pm} {pm} {pm}
Because I`m gone!

BRIDGE

F# D A D B E E E E F# D A D B E E E E
-----------------------------------------------------------------------------
-----------------------------------------------------------------------------
-----------------------------------------------------------------------------
-11-----7------------------9--9-9-9---111-----7------------------9--9-9-9----
-9------5----7-------12--9-7--7-7-7---99------5----7-------12--9-7--7-7-7----
-------------5-------10--7-------------------------5-------10--7-------------
{Guitar and Keyboard}
Still it breaks me down inside, `cause I want truth of our life

F# D A D B E# D
--------------------------------------------------------------------
--------------------------------------------------------------------
--------------------------------------------------------------------
-11-----7-------------------15--------------------------------------
-9------5----7-------12--9--15--------------------12----------------
-------------5-------10--7--13--------------------10----------------
{Guitar and Keyboard}
And I am the stronger man, nothing will change me at all. You Lie!!

BA#A B A# A B A~
---------------------------------------------------------------------
---------------------------------------------------------------------
---------------------------------------------------------------------
---------------------------------------------------------------------
---------987------------9--8--7------------987------------9-7~---
-0---0-0-765---0---0-0--7--6--5---0----0-0-765---0---0-0--7-5~---
{pm} {pm} {pm}

BA#A B A# A B A~
---------------------------------------------------------------------
---------------------------------------------------------------------
---------------------------------------------------------------------
---------------------------------------------------------------------
---------987------------9--8--7------------987------------9-7~---
-0---0-0-765---0---0-0--7--6--5---0----0-0-765---0---0-0--7-5~---
{pm} {pm} {pm}

LEAD

------12-13-12~--12-13-15--15p13p12----------------------------------------
-12-15-----------------------------15----------12h13h15p12-----------------
--------------------------------------114~~~~~------------14p1210---------
------------------------------------------------------------------12~~~~---
---------------------------------------------------------------------------
---------------------------------------------------------------------------
{Guitar 1}

D D C A D D C F
--------------------------------------------------------------
--------------------------------------------------------------
--------------------------------------------------------------
-----------------------------------------------------10-------
-12---12-------8----10--7----12---12--------8-----10--8-------
-10---10--8&10--10---8--5----10---10--88&10--10---8-----5&8---
{Guitar 2}
My love!

----------------------------------------------------------------------------------
----------------------------------------------------------------------------------
-12^(14s`12)-9-10-12~~--9-10p9------------------------------------------10--------
------------------------------10~~--12~~~--10--10~-----10h12&14-12~---------12~~--
---------------------------------------------12---10h12------------10h12----------
----------------------------------------------------------------------------------

D D C A D D C F
--------------------------------------------------------------
--------------------------------------------------------------
--------------------------------------------------------------
-----------------------------------------------------10-------
-12---12-------8----10--7----12---12--------8-----10--8-------
-10---10--8&10--10---8--5----10---10--88&10--10---8-----5&8---
{Guitar 2}
Just like a prayre

---------------------------15^(17~~s`155)-15(12)-12------------------------
-------15--15~~------12-15--------------------------15-12-15~~~~~~(10)-----
-12-14---14-----12&14-------------------------------------------------------
----------------------------------------------------------------------------
----------------------------------------------------------------------------
----------------------------------------------------------------------------
Oh, darling

D D C A D D C F
--------------------------------------------------------------
--------------------------------------------------------------
--------------------------------------------------------------
-----------------------------------------------------10-------
-12---12-------8----10--7----12---12--------8-----10--8-------
-10---10--8&10--10---8--5----10---10--88&10--10---8-----5&8---
{Guitar 2}

-----------------------------------------------------
-----------------------------------------------------
-----------------------------------------------------
----------------------2~~-----------------------2~---
------(3)&5-4~------2----------(3)&5-4~~-------------
--0-0---------4p0-4------0-0--------------0-0-4------
{..pm.} {.pm.}

-----------------------------------------------------
-----------------------------------------------------
-----------------------------------------------------
----------------------2~~-----------------------2~---
------(3)&5-4~------2----------(3)&5-4~~-------------
--0-0---------4p0-4------0-0--------------0-0-4------
{..pm.} {.pm.}
Yeah, In a

-----------------------------------------------------
-----------------------------------------------------
-----------------------------------------------------
----------------------2~~-----------------------2~---
------(3)&5-4~------2----------(3)&5-4~~-------------
--0-0---------4p0-4------0-0--------------0-0-4------
{..pm.} {.pm.}
dream I had a final vision, How come you just wanna be my friend?

-----------------------------------------------------
-----------------------------------------------------
-----------------------------------------------------
----------------------2~~-----------------------2~---
------(3)&5-4~------2----------(3)&5-4~~-------------
--0-0---------4p0-4------0-0--------------0-0-4------
{..pm.} {.pm.}
How come?

CHOURSE
BA#A B A# A B A~
---------------------------------------------------------------------
---------------------------------------------------------------------
---------------------------------------------------------------------
---------------------------------------------------------------------
---------987------------9--8--7------------987------------9-7~---
-0---0-0-765---0---0-0--7--6--5---0----0-0-765---0---0-0--7-5~---
{pm} {pm}
I`m gone, gone just like the past

BA#A B A# A B A~
---------------------------------------------------------------------
---------------------------------------------------------------------
---------------------------------------------------------------------
---------------------------------------------------------------------
---------987------------9--8--7------------987------------9-7~---
-0---0-0-765---0---0-0--7--6--5---0----0-0-765---0---0-0--7-5~---
{pm} {pm} {pm}
Because I`m gone and you won`t be the last

BA#A B A# A B A~
---------------------------------------------------------------------
---------------------------------------------------------------------
---------------------------------------------------------------------
---------------------------------------------------------------------
---------987------------9--8--7------------987------------9-7~---
-0---0-0-765---0---0-0--7--6--5---0----0-0-765---0---0-0--7-5~---
{pm} {pm} {pm}
`Cause I`ll be strong Uh, can you hear my voice?

BA#A B A# A B A~
---------------------------------------------------------------------
---------------------------------------------------------------------
---------------------------------------------------------------------
---------------------------------------------------------------------
---------987------------9--8--7------------987------------9-7~---
-0---0-0-765---0---0-0--7--6--5---0----0-0-765---0---0-0--7-5~---
{pm} {pm} {pm}
Because I`m gone! Heh!

BA#A B A# A B A~
---------------------------------------------------------------------
---------------------------------------------------------------------
---------------------------------------------------------------------
---------------------------------------------------------------------
---------987------------9--8--7------------987------------9-7~---
-0---0-0-765---0---0-0--7--6--5---0----0-0-765---0---0-0--7-5~---
{pm} {pm}
I`m gone, gone just like the past

BA#A B A# A B A~
---------------------------------------------------------------------
---------------------------------------------------------------------
---------------------------------------------------------------------
---------------------------------------------------------------------
---------987------------9--8--7------------987------------9-7~---
-0---0-0-765---0---0-0--7--6--5---0----0-0-765---0---0-0--7-5~---
{pm} {pm} {pm}
Because I`m gone and you won`t be the last

BA#A B A# A B A~
---------------------------------------------------------------------
---------------------------------------------------------------------
---------------------------------------------------------------------
---------------------------------------------------------------------
---------987------------9--8--7------------987------------9-7~---
-0---0-0-765---0---0-0--7--6--5---0----0-0-765---0---0-0--7-5~---
{pm} {pm} {pm}
`Cause I`ll be strong Now, can you hear my voice?

BA#A B A# A B A~
---------------------------------------------------------------------
---------------------------------------------------------------------
---------------------------------------------------------------------
---------------------------------------------------------------------
---------987------------9--8--7------------987------------9-7~---
-0---0-0-765---0---0-0--7--6--5---0----0-0-765---0---0-0--7-5~---
{pm} {pm} {pm}
Because I`m gone! Hey, hey!!

BA#A B A# A B A~
---------------------------------------------------------------------
---------------------------------------------------------------------
---------------------------------------------------------------------
---------------------------------------------------------------------
---------987------------9--8--7------------987------------9-7~---
-0---0-0-765---0---0-0--7--6--5---0----0-0-765---0---0-0--7-5~---
{pm} {pm} {pm}

BA#A B A# A B A~
---------------------------------------------------------------------
---------------------------------------------------------------------
---------------------------------------------------------------------
---------------------------------------------------------------------
---------987------------9--8--7------------987------------9-7~---
-0---0-0-765---0---0-0--7--6--5---0----0-0-765---0---0-0--7-5~---
{pm} {pm} {pm}




I`m Gone tab - Black Sabbath akoru
I`m Gone tab - Black Sabbath notaları,
I`m Gone tab - Black Sabbath tablar bas tablar akord akor oku



iletisim  Reklam  Gizlilik sözlesmesi
Diger sitelerimize baktiniz mi ? Radyo Dinle - milli piyango sonuclari - 2017 yeni yil mesajlari - Güzel sözler Sohbet 2003- 2016 Canim.net Her hakki saklidir.