Güzel sözler | Fıkra | Hikaye | Şiir - Şair| Şarkı sözleri | Türküler | Sohbet odaları | Rüya | Sağlık | Biyografi | islam | Güzeller | Paylaş


Canim.net
Akorlar
Akor Ekle
Şarkı sözleri
Yabancı şarkı sözleri
Çeviriler
Türkü
A  B  C  Ç  D  E  F  G  Ğ  H  I  İ  J  K  L  M  N  O  Ö  P  R  S  Ş  T  U  Ü  V  Y  Z 



I Told You So tab - Carcass



RIFF 1A
|-----------------------------------------|------------------------------------|
|-----------------------------------------|------------------------------------|
|-----------------------------------------|------------------------------------|GTR 1
|-----------5---------7---------9-----7&9-|--------5---------7---------9-------|
|-2---------3---------5---------7-----5&7-|--------3---------5---------7-----5-|
|-0--00-3p0----00-3p0----00-3p0----00-----|-00-3p0----00-3p0----00-3p0----00-3-|
| .. .. .. .. | .. .. .. .. |
| | |
|-----------------------------------------|------------------------------------|
|-----------------------------------------|------------------------------------|
|-----------------------------------------|------------------------------------|GTR 2
|-----------------------------------------|--------------------x--------------|
|-----------------------------------------|--------------------x--------------|
|-----------------------------------------|--------------------*---------------|

* pick slide (nicen slow)


|-----------------------------------------|-------------------------------------|
|-----------------------------------------|-------------------------------------|
|-----------------------------------------|-------------------------------------|GTRS 1+2
|-----------5---------7---------9-----7&9-|--------5---------7------------------|
|-2---------3---------5---------7-----5&7-|--------3---------5--9-8-7-----------|
|-0--00-3p0----00-3p0----00-3p0----00-----|-00-3p0----00-3p0----7-6-5-6-5h6p5-3-|
.. .. .. .. .. ..


RIFF 2
|-----5-----5--------5-----4---------5-----5--------5-------------|
|-----5-----5--------5-----5---------5-----5--------5-------------|
|-----------------------------------------------------------------|GTRS 1+2
|-----------------------------------------------------------------|
|------------------------------------------------------------5----|
|-&2----222---222-0----000---000-&7----777---777-5----555-&7---7--|
... ... ... ... ... ... ... .

Repeat RIFF 2



RIFF 3A
|------------------------------------------------------------|
|------------------------------------------------------------|
|------------------------------------------------------------|GTRS 1+2
|------------------------------------------------------------|
|-4---------5---2---------5---&7---------5---&9---------5----|
|-2------&7---7-0------&7---7-&5------&7---7-&7------&7---7--|
. . . .

RIFF 2
RIFF 3A

RIFF 3B
|--------------------------------------------------|
|--------------------------------------------------|
|--------------------------------------------------|GTRS 1+2
|--------------------------------------------6~----|
|-4---------5---2---------5---&7---------5---------|
|-2------&7---7-0------&7---7-&5------&7---7-------|
. . . ph


RIFF 1B
|-----------------------------------------|------------------------------------|
|-----------------------------------------|------------------------------------|
|-----------------------------------------|------------------------------------|GTR 1+2
|-----------5---------7---------9-----7&9-|--------5---------7---------9-------|
|-2---------3---------5---------7-----5&7-|--------3---------5---------7-----5-|
|-0--00-3p0----00-3p0----00-3p0----00-----|-00-3p0----00-3p0----00-3p0----00-3-|
.. .. .. .. .. .. .. ..


|-----------------------------------------|-------------------------------------|
|-----------------------------------------|-------------------------------------|
|-----------------------------------------|-------------------------------------|GTRS 1+2
|-----------5---------7---------9-----7&9-|--------5---------7------------------|
|-2---------3---------5---------7-----5&7-|--------3---------5--9-8-7-----------|
|-0--00-3p0----00-3p0----00-3p0----00-----|-00-3p0----00-3p0----7-6-5-6-5h6p5-3-|
.. .. .. .. .. .. . . .


RIFF 2 2x
RIFF 3A
RIFF 2
RIFF 3A
RIFF 3B
RIFF 1B


RIFF 4A
|-----------------------------|
|-----------------------------|
|-----------------------------|GTR 1
|-2--------&5---3--------&6---|
|-----------------------------|
|-0--------&3---1--------&4---|
| |
| |
|-----------------------------|
|-----------------------------|
|-4--------&7-------------5---|GTR 2
|---------------7-------------|
|-2--------&5-------------3---|
|---------------5-------------|

Repeat RIFF 4A 3x


SOLO w&RIFF 4B (tabbed after the solo)
|-----16-----&19-----&22--------20fb--20~--17-19hr-19~--|
|--------17------21------24~----------------------------|
|-------------------------------------------------------|
|-&14---------------------------------------------------|
|-------------------------------------------------------|
|-------------------------------------------------------|


|-17h19p17p16-17-19---------------------------------------------------------|
|-------------------17~----&15----15~--13h15p1312-13-15--------------------|
|------------------------------16------------------------14~--14h16p14-13~--|
|---------------------------------------------------------------------------|
|---------------------------------------------------------------------------|
|---------------------------------------------------------------------------|


|-------------------10fb----------------------------------------------------
|-------------10-9-----------UNFINISHED-------------------------------------
|-9h10p9----9---------------------------------------------------------------
|--------12-----------------------------------------------------------------
|---------------------------------------------------------------------------
|---------------------------------------------------------------------------
ph


RIFF 4B
|-----------------------------|-----------------------------|
|-----------------------------|-----------------------------|
|-----------------------------|-----------------------------|GTR 1
|-2--------&5---3--------&6---|-2--------&5---3--------&6---|
|-2---------------------------|-2---------------------------|
|-0--------&3---1--------&4---|-0--------&3---1--------&4---|
| | |
| | |
|-----------------------------|-----------------------------|
|-----------------------------|-----------------------------|
|-----------------------------|-----------------------------|GTR 2
|-2--------&5---3--------&6---|-2--------&5---3--------&6---|
|-2---------------------------|-2---------------------------|
|-0--------&3---1--------&4---|-0--------&3---1--------&4---|


|-----------------------------|-----------------------------|
|-----------------------------|-----------------------------|
|-----------------------------|-----------------------------|GTR 1
|-2--------&5---3--------&6---|-2--------&5---3-------------|
|-2---------------------------|-2-----------------------1~--|
|-0--------&3---1--------&4---|-0--------&3---1-------------|
| | ph + wide vibrato
| | |
|-----------------------------|-----------------------------|
|-----------------------------|-----------------------------|
|-----------------------------|-----------------------------|GTR 2
|-2--------&5---3--------&6---|-2--------&5---3---------6~--|
|-2---------------------------|-2---------------------------|
|-0--------&3---1--------&4---|-0--------&3---1---------4~--|
wide vibrato


RIFF 1A
RIFF 1B 2x


ENDING
|------|
|------|
|------|GTRS 1+2
|-2----|
|-2----|
|-0----|




I Told You So tab - Carcass akoru
I Told You So tab - Carcass notaları,
I Told You So tab - Carcass tablar bas tablar akord akor oku



iletisim  Reklam  Gizlilik sözlesmesi
Diger sitelerimize baktiniz mi ? Radyo Dinle - milli piyango sonuclari - 2017 yeni yil mesajlari - Güzel sözler Sohbet 2003- 2016 Canim.net Her hakki saklidir.