Güzel sözler | Fıkra | Hikaye | Şiir - Şair| Şarkı sözleri | Türküler | Sohbet odaları | Rüya | Sağlık | Biyografi | islam | Güzeller | Paylaş


Canim.net
Akorlar
Akor Ekle
Şarkı sözleri
Yabancı şarkı sözleri
Çeviriler
Türkü
A  B  C  Ç  D  E  F  G  Ğ  H  I  İ  J  K  L  M  N  O  Ö  P  R  S  Ş  T  U  Ü  V  Y  Z 



I Miss You tab - Blink 182



Intro&Verses
e---------------- This is repeated throughout the song, simple!
b----------------
g---4&8-8-8-8-8--
d---x&x-x-x-x-x--
a---2&6-6-6-6-6--
E----------------

Chorus
e---------------------------------------------------------------
b---------------------------------------------------------------
g--4-4-4-4-4-4&6-6-6-6-6-6&8-8-8-8-8-8&11-11-11-11-11-11--------
d--x-x-x-x-x-x&x-x-x-x-x-x&x-x-x-x-x-x& x--x--x--x--x--x--------
a--2-2-2-2-2-2&4-4-4-4-4-4&6-6-6-6-6-6& 9--9--9--9--9--9--------
E---------------------------------------------------------------

e-----------------------------------------
b-----------------------------------------
g-----------------------------------------
d--6-6-6-6-6-6-8-8-8-8-8-8-9-9-9-9-9-9----
a--7-7-7-7-7-7-7-7-7-7-7-7-7-7-7-7-7-7----
E--0-0-0-0-0-0-0-0-0-0-0-0-0-0-0-0-0-0----
Piano Part
e-----------------------------------------
b-----------------------------------------
g--11-8-11-8-11-8-11-8-11-8-11-9-11-9-8---
d---------------------------------------9-
a-----------------------------------------
E-----------------------------------------




I Miss You tab - Blink 182 akoru
I Miss You tab - Blink 182 notaları,
I Miss You tab - Blink 182 tablar bas tablar akord akor oku



iletisim  Reklam  Gizlilik sözlesmesi
Diger sitelerimize baktiniz mi ? Radyo Dinle - milli piyango sonuclari - 2017 yeni yil mesajlari - Güzel sözler Sohbet 2003- 2016 Canim.net Her hakki saklidir.