Güzel sözler | Fıkra | Hikaye | Şiir - Şair| Şarkı sözleri | Türküler | Sohbet odaları | Rüya | Sağlık | Biyografi | islam | Güzeller | Paylaş


Canim.net
Akorlar
Akor Ekle
Şarkı sözleri
Yabancı şarkı sözleri
Çeviriler
Türkü
A  B  C  Ç  D  E  F  G  Ğ  H  I  İ  J  K  L  M  N  O  Ö  P  R  S  Ş  T  U  Ü  V  Y  Z 



I Dont Wanna - Aliyah



Intro&Verse&Chrous
Gmaj Emaj Fmaj Gmaj(?)(?)

E:----------------------------------------------------|
A:----------------------------------------------------|
D:-5---5--------2-----2--------3---5----10-9--5--9----|
G:-5---4--------1-1---1--------2---4----9--7--5--7----|
B:-5---3--------0-----0--------1---3----8--8--5--8----|
E:-5---3--------0--0--0--------1---3----8--7--5 -7----|


Fill During verse

E:-------------------------------|
A:-------------------------------|
D:-------------------------------|
G:-------------------------------|
B:------6~~----------------------|
E:-5H8P5-----3H5-5~~~7h8-7-5-7~~~|

Fill During chorus

E:-------------------|
A:-------------------|
D:-------------------|
G:-------------------|
B:-----8-------------|
E:-7h10-8H7--5--7~~~-|


|Legend|

H = Hammer on

P = Pull Off

~ = Vibrato






I Dont Wanna - Aliyah akoru
I Dont Wanna - Aliyah notaları,
I Dont Wanna - Aliyah tablar bas tablar akord akor oku



iletisim  Reklam  Gizlilik sözlesmesi
Diger sitelerimize baktiniz mi ? Radyo Dinle - milli piyango sonuclari - 2017 yeni yil mesajlari - Güzel sözler Sohbet 2003- 2016 Canim.net Her hakki saklidir.