Güzel sözler | Fıkra | Hikaye | Şiir - Şair| Şarkı sözleri | Türküler | Sohbet odaları | Rüya | Sağlık | Biyografi | islam | Güzeller | Paylaş


Canim.net
Akorlar
Akor Ekle
Şarkı sözleri
Yabancı şarkı sözleri
Çeviriler
Türkü
A  B  C  Ç  D  E  F  G  Ğ  H  I  İ  J  K  L  M  N  O  Ö  P  R  S  Ş  T  U  Ü  V  Y  Z 



I Cum Blood tab - Cannibal Corpse



Tuning: D# G# C# F#

0:05
|---|
|---|
|---|
|-0-|

0:05
|----------------------------------------------------------------|
|----------------------------------------------------------------| Four
|----------------------------------------------------------------| Times
|-666-333-444-111-666-333-111-000-666-333-444-111-666-111-111-0--|

0:25
|--------------------------------------|
|--------------------------------------| Three
|--------------------------------------| Times
|-5-0-6-0-2-0-3-0-5-0-6-0-3-0-2-0-1-0--|

|------------------------------------|
|------------------------------------|
|------------------------------------|
|-5-0-6-0-2-0-3-0-5-0-6-0-3-0-2-0-1--|

0:40
|-----|
|-----|
|-----|
|-6--|

0:41
|--------------------------|
|--------------------------| Four
|--------------------------| Times
|-0-1-0-3&43-0-1-0-1&21--|

0:52
|--------------|
|--------------| Four
|--------------| Times
|-6-3-0-1-0-2--|

0:57
|--------------------------|
|--------------------------| Twice
|--------------------------|
|-0-1-0-3&43-0-1-0-1&21--|

1:03
|--------------|
|--------------| Four
|--------------| Times
|-6-3-0-1-0-2--|

1:09
|--------------------------|
|--------------------------| Twice
|--------------------------|
|-0-1-0-3&43-0-1-0-1&21--|

1:14
|--------------|
|--------------| Four
|--------------| Times
|-6-3-0-1-0-2--|

1:20
|--------------------------|
|--------------------------| Three
|--------------------------| Times
|-666-333-000-111-000-222--|

|--------------------|
|--------------------|
|--------------------|
|-666-333-000-111-0--|

|--------------------------|
|--------------------------|
|--------------------------|
|-666-333-000-111-000-222--|

|--------------------|
|--------------------|
|--------------------|
|-666-333-000-111-0--|

1:30
|--------------------------------------------------|
|---------333-555-----------------333-444----------| Twice
|-----222---------444---------222---------333------|
|-111-----------------333-111-----------------222--|

1:38
|--------------------------------------|
|--------------------------------------| Three
|--------------------------------------| Times
|-5-0-6-0-2-0-3-0-5-0-6-0-3-0-2-0-1-0--|

|------------------------------------|
|------------------------------------|
|------------------------------------|
|-5-0-6-0-2-0-3-0-5-0-6-0-3-0-2-0-1--|

1:51
|-----|
|-8--| Definetly not sure, but
|-----| the slide sounds like that.
|-6--|

1:52
|--------------------------|
|--------------------------| Five
|--------------------------| Times
|-0-1-0-3&43-0-1-0-1&21--|

2:05
|--------------|
|--------------| Four
|--------------| Times
|-6-3-0-1-0-2--|

2:10
|------------|
|-------5-8--| Eight
|-------3-6--| Times
|-6-3-0------|

2:22
|----------------------------------------------------------------|
|----------------------------------------------------------------|
|----------------------------------------------------------------|
|-666-333-444-111-666-333-111-000-666-333-444-111-666-111-111-0--|

2:27
|------------|
|-------5-8--| Four
|-------3-6--| Times
|-6-3-0------|

2:33
|--------------------------------|
|--------------------------------|
|--------------------------------|
|-666-333-444-111-666-111-111-0--|

2:35
|------------|
|-------5-8--| Twice
|-------3-6--|
|-6-3-0------|

2:38
|----------------------------------------------------------------|
|----------------------------------------------------------------| Twice
|----------------------------------------------------------------|
|-666-333-444-111-666-333-111-000-666-333-444-111-666-111-111-0--|

2:48
|--------------------------------------|
|--------------------------------------| Four
|--------------------------------------| Times
|-555-666-222-333-555-666-333-222-111--|

|--------------|
|--------------| Three
|--------------| Times
|-333-222-111--|

3:01
|--------------------------------------------------|
|--------------------------------------------------|
|--------------------------------------------------|
|-666-555-444-555-444-333-444-333-222-333-222-111--|

3:05
|--------------|
|-555-444-333--| Four
|--------------| Times
|--------------|

3:08
|--------------------------------------------------|
|-888-777-666-777-666-555-666-555-444-555-444-333--|
|--------------------------------------------------|
|--------------------------------------------------|

3:12
|--------------|
|-555-444-333--| Four
|--------------| Times
|--------------|

3:16
|--------------------------------------------------|
|--------------------------------------------------|
|--------------------------------------------------|
|-666-555-444-555-444-333-444-333-222-333-222-111--|

3:19
|--------------------------------------------------|
|---------333-555-----------------333-444----------| Twice
|-----222---------444---------222---------333------|
|-111-----------------333-111-----------------222--|

3:27
|--------------------------------------|
|--------------------------------------| Twice
|--------------------------------------|
|-5-0-6-0-2-0-3-0-5-0-6-0-3-0-2-0-1-0--|

3:32
|--------------------------|
|--------------------------| Three
|--------------------------| Times
|-666-333-000-111-000-222--|

|--------------------|
|--------------------|
|--------------------|
|-666-333-000-111-0--|




I Cum Blood tab - Cannibal Corpse akoru
I Cum Blood tab - Cannibal Corpse notaları,
I Cum Blood tab - Cannibal Corpse tablar bas tablar akord akor oku



iletisim  Reklam  Gizlilik sözlesmesi
Diger sitelerimize baktiniz mi ? Radyo Dinle - milli piyango sonuclari - 2017 yeni yil mesajlari - Güzel sözler Sohbet 2003- 2016 Canim.net Her hakki saklidir.