Güzel sözler | Fıkra | Hikaye | Şiir - Şair| Şarkı sözleri | Türküler | Sohbet odaları | Rüya | Sağlık | Biyografi | islam | Güzeller | Paylaş


Canim.net
Akorlar
Akor Ekle
Şarkı sözleri
Yabancı şarkı sözleri
Çeviriler
Türkü
A  B  C  Ç  D  E  F  G  Ğ  H  I  İ  J  K  L  M  N  O  Ö  P  R  S  Ş  T  U  Ü  V  Y  Z 



I Am Gay tab - Bowling For Soup



Intro:
e|----------------------------------------------------|
B|----------------------------------------------------|
G|--4-4444----------4-4444----------------------------|
D|--4-4444--2-2222--4-4444--4-4444-(X5)---------------|
A|--2-2222--2-2222--2-2222--4-4444--------------------|
E|----------0-0000----------2-2222--------------------|
"This fuckin song is all personality...."

Verse:
e|---------------------------------------------------------------|
B|---------------------------------------------------------------|
G|--4-4444--------------------------4-4444-----------------------|
D|--4-4444--4-4444--2-2222--4-4444--4-4444--4-4444--2-22222222---|
A|--2-2222--4-4444--2-2222--4-4444--2-2222--4-4444--2-22222222---|
E|----------2-2222--0-0000--2-2222----------2-2222--0-00000000---|
"Well weve all heard about how the guys...."

Pre-Chorus:
e|---------------------------------------------------------------|
B|---------------------------------------------------------------|
G|--66666666--444444---------------------------------------------|
D|--66666666--444444---------------------------------------------|
A|--44444444--222222---------------------------------------------|
E|---------------------------------------------------------------|
"I think rock and roll is really funny"

Chorus:
e|---------------------------------------------------------------|
B|---------------------------------------------------------------|
G|--44444444-----------------------------------------------------|
D|--44444444--44444444--222222222222--(X2)-----------------------|
A|--22222222--44444444--222222222222-----------------------------|
E|------------22222222--000000000000-----------------------------|

Outro:
e|---------------------------------------------------------------|
B|---------------------------------------------------------------|
G|-44444-------------------------44444---------------------------|
D|-44444--44444--22222-----------44444--44444--22222-------------|
A|-22222--44444--22222-----------22222--44444--22222-------------|
E|--------22222--00000--0-2-4-6---------22222--00000--0-2-4-6----|
"La..lala..la..lalalala..la..la.."




I Am Gay tab - Bowling For Soup akoru
I Am Gay tab - Bowling For Soup notaları,
I Am Gay tab - Bowling For Soup tablar bas tablar akord akor oku



iletisim  Reklam  Gizlilik sözlesmesi
Diger sitelerimize baktiniz mi ? Radyo Dinle - milli piyango sonuclari - 2017 yeni yil mesajlari - Güzel sözler Sohbet 2003- 2016 Canim.net Her hakki saklidir.