Güzel sözler | Fıkra | Hikaye | Şiir - Şair| Şarkı sözleri | Türküler | Sohbet odaları | Rüya | Sağlık | Biyografi | islam | Güzeller | Paylaş


Canim.net
Akorlar
Akor Ekle
Şarkı sözleri
Yabancı şarkı sözleri
Çeviriler
Türkü
A  B  C  Ç  D  E  F  G  Ğ  H  I  İ  J  K  L  M  N  O  Ö  P  R  S  Ş  T  U  Ü  V  Y  Z 



Hypnotize - System Of A Down



Chords:
G - 555xxx
Eb - 131313xxx (or 111xxx during verse)
F - 151515xxx
Bb - 888xxx
Open - 000xxx

Intro.I
Eb------------------------------------
Bb-1-1-3-3-3-3-3-3-3-4-4-3-3-1-1-0-0--
Gb--0-0-0-0-0-0-0-0-0-0-0-0-0-0-0-0-0-
Db------------------------------------
Ab------------------------------------
Db------------------------------------

Intro.II
--------------------------------------------
-8-8-7-7-10-10-8-8-12-12-10-10-13-13-12-12--
--0-0-0-0--0--0-0-0--0--0--0--0--0--0--0--0-
--------------------------------------------
--------------------------------------------
--------------------------------------------


Riff.I
-----------------------------------------------------------------------
-15-15-13-13-12-12-10-10-13-13-12-12-10-10-8-8-11-11-10-10-8-8-7-7-----
---0--0--0--0--0--0--0--0--0--0--0--0--0--0-0-0--0--0--0--0-0-0-0-0----
-----------------------------------------------------------------------
-----------------------------------------------------------------------
-----------------------------------------------------------------------

Riff.II
G D FG D FG(palm muted)

Solo
--------------7---7h8-10--8-7-8--7h8p7----7---------7-8-7-7h8p7----7-------
----8------10--------------------------10---10-8-10-------------10----10---
---------------------------------------------------------------------------
---------------------------------------------------------------------------
---------------------------------------------------------------------------
---------------------------------------------------------------------------

INTRO
Intro.I x 2
Intro.II x 2
Riff.I

VERSE
[chord strikes on the syllables...G on the first 4, Eb on the 6th and so on]
G G GG Eb G G GG Eb
Why dont you...

G G GG Eb G G GG Eb
Was fashion the...

G G GG Eb G G GG Eb
They disguise...

G G GG Eb G G GG Eb
Television...

CHORUS
Riff.I
Im just sitting...

(Riff.I continues)
And waiting...

VERSE
G G G G Eb G G GG Eb
Shes scared that...

G G G G Eb G G G G Eb
Her dreams and ...

G G GG Eb G G GG Eb
Mezmerize ...

G G GG Eb G G GG Eb
Propaganda ...

CHORUS
Riff.I
Im just sitting...

(Riff.I continues) G G GG Eb G G GG Eb
And waiting for my girl[sustain "girl" throughout]

G Eb F
Im just sitting...

Bb Open Riff.II
And waiting........girl

BREAK
Layer 1: Riff.II x 11 [66 beats]
Layer 2: Solo x 2
drone on 8th fret on B string
Layer 3: Intro.I x 2
Intro.II x 2
CHORUS
G Eb F
Im just sitting...

Bb Open Riff.II
And waiting........girl

GGGGG EbEbEbEbEb EbEbEbEbEb FFFFF
Im just sitting...

BbBbBbBbBb Openx5
And waiting for my...

------------------------------------
-1-1-3-3-3-3-3-3-3-4-4-3-3-1-1h31-0-
--0-0-0-0-0-0-0-0-0-0-0-0-0-0-----0-
------------------------------------
------------------------------------
------------------------------------
girl




Hypnotize - System Of A Down akoru
Hypnotize - System Of A Down notaları,
Hypnotize - System Of A Down tablar bas tablar akord akor oku



iletisim  Reklam  Gizlilik sözlesmesi
Diger sitelerimize baktiniz mi ? Radyo Dinle - milli piyango sonuclari - 2017 yeni yil mesajlari - Güzel sözler Sohbet 2003- 2016 Canim.net Her hakki saklidir.