Güzel sözler | Fıkra | Hikaye | Şiir - Şair| Şarkı sözleri | Türküler | Sohbet odaları | Rüya | Sağlık | Biyografi | islam | Güzeller | Paylaş


Canim.net
Akorlar
Akor Ekle
Şarkı sözleri
Yabancı şarkı sözleri
Çeviriler
Türkü
A  B  C  Ç  D  E  F  G  Ğ  H  I  İ  J  K  L  M  N  O  Ö  P  R  S  Ş  T  U  Ü  V  Y  Z 



Holigan 1 - Athena



E||-----------------------|------------------------|
B||-----------------------|------------------------|
G||--1----1----1--1--1----|--1--1--1--1------------|
D||--1----1----1--1--1----|--1--1--1--1----2--2----|
A||-----------------------|----------------2--2----|
E||--4----4----4--4--4----|--4--4--4--4----0--0----|

-----------------------|------------------------|
-----------------------|------------------------|
--1----1----1--1--1----|--1--1--1--1------------|
--1----1----1--1--1----|--1--1--1--1----2--2----|
-----------------------|----------------2--2----|
--4----4----4--4--4----|--4--4--4--4----0--0----|

-----------------------|------------------------|
-----------------------|------------------------|
--1----1----1--1--1----|--1--1--1--1------------|
--1----1----1--1--1----|--1--1--1--1----2--2----|
-----------------------|----------------2--2----|
--4----4----4--4--4----|--4--4--4--4----0--0----|

-----------------------|---------------------|
-----------------------|-------------------2-|
--1----1----1--1--1----|---------------------|
--1----1----1--1--1----|---------------------|
-----------------------|---------------------|
--4----4----4--4--4----|---------------------|


D##5Sus4 )
Kalbimizden kopuyor bu şarkı sana )
Sanmasınlar ikimiz ayrı yollarda ) B
E6-5 )
Para pulla ölçülmez aşkımız sana )
D##5Sus4 )
Hiç bir zaman bırakmayız seni yollarda )

( D#m#5 E )
( Marş Söylerken Yumruk Öterde )
A ( C#m D#m#5 )
( Yensen Yenilsen Kalbim Hep Sende )

D##5Sus4
Ne derlerse desinler ikimiz için
Hiç takmadık takmayız taraftarız biz
E6-5
Gururumuzsun sen yeşil sahada
D##5Sus4
Koca dünya bir yana sen biryana

E6-5
Bizim için haydi şimdi Bastır bastır bastır...

Tekrar (A)

Tekrar (B)

Tekrar (A)

__________________________________________
|D##5Sus4 | E6-5 | D#m#5 | E | C#m |
_|=========|========|=======|======|========|
E|---7-----|---9----|---7---|--7---|--------|
B|---9-----|---9----|---7---|--9---|---9----|
G|---8-----|---9----|---8---|--9---|---9----|
D|---------|--------|-------|------|---11---|
A|---------|--------|-------|------|--------|
E|---------|--------|-------|------|--------|
¯¯¯¯¯¯¯¯¯¯¯¯¯¯¯¯¯¯¯¯¯¯¯¯¯¯¯¯¯¯¯¯¯¯¯¯¯¯¯¯¯¯¯¯¯




Holigan 1 - Athena akoru
Holigan 1 - Athena notaları,
Holigan 1 - Athena tablar bas tablar akord akor oku



iletisim  Reklam  Gizlilik sözlesmesi
Diger sitelerimize baktiniz mi ? Radyo Dinle - milli piyango sonuclari - 2017 yeni yil mesajlari - Güzel sözler Sohbet 2003- 2016 Canim.net Her hakki saklidir.