Güzel sözler | Fıkra | Hikaye | Şiir - Şair| Şarkı sözleri | Türküler | Sohbet odaları | Rüya | Sağlık | Biyografi | islam | Güzeller | Paylaş


Canim.net
Akorlar
Akor Ekle
Şarkı sözleri
Yabancı şarkı sözleri
Çeviriler
Türkü
A  B  C  Ç  D  E  F  G  Ğ  H  I  İ  J  K  L  M  N  O  Ö  P  R  S  Ş  T  U  Ü  V  Y  Z 



Hergün Aradıysam Tab - Teoman



intro:
E|----------| )
B|----------| )
G|----------| )
D|-4--7--9--| ) x4
A|-4--7--9--| )
E|-2--5--7--| )

E|--------------------------|
B|--------------------------|
G|-5--1---------------------|
D|-5--2--4-4---4-4---4------|
A|-3--2--4-4---4-4---4------|
E|-------2-2-0-2-2-0-2------|

HERGÜN ARADIYSAM
F#m E
Gizli değil ki bu okunuyor yüzümden
B F#m F#m E F#m F#m E F#m
Sonsuz bulamayışı kalbimin

E|---------------------|
B|---------------------|
G|---------------------|
D|--4-4---4-4---4------|
A|--4-4---4-4---4------|
E|--2-2-0-2-2-0-2------|

F#m E A B
Bir daha aramaz tanırım onu
A F#m F#m E F#m F#m E Bm Cm
Kaçamağı beynimin
E|--------------------------------------------------------|
B|--------------------------------------------------------|
G|-----------------4--6--7--------------------------------|
D|--4-4---4-4---4--4--6--7--------2--------7-----2--4-----|
A|--4-4---4-4---4--2--4--5--------2--------7-----2--4-----|
E|--2-2-0-2-2-0-2-----------------0--------5-----0--2-----|

Tutunuversem çalısına sevginin
E|--------------------------------|
B|--------------------------------|
G|-7------------------------------|
D|-7-------4---4--7--9------------|
A|-5-------4---4--7--9------------|
E|---------2---2--5--7------------|
Uçurumlarda.

E|---------------------| )
B|---------------------| )
G|---------------------| )
D|------------4--7--9--| ) <==TEKRAR
A|------------4--7--9--| )
E|------------2--5--7--| )

Hergün aradıysam,
TEKRAR
Hiç bulamadıysam,
E|-------------------------------------------|
B|-------------------------------------------|
G|------------7------------------------------|
D|------------7-------2--------------4--7--9-|
A|------------5-------2--------------4--7--9-|
E|--------------------0--------------2--5--7-|
Hep çocuk kaldıysam Büyürmüyüm sonunda?


F#m A
Tek sen değilsin ki boşluğa uzanan
B F#m F#m E F#m F#m E F#m
Korkak sevgisiz kalbimiz.
E|---------------------|
B|---------------------|
G|---------------------|
D|--4-4---4-4---4------|
A|--4-4---4-4---4------|
E|--2-2-0-2-2-0-2------|
F#m E A B
Bir daha aramaz tanırım onu
A F#m F#m E F#m F#m E F#m
Yaralıyız hepimiz.

NAKARAT




Hergün Aradıysam Tab - Teoman akoru
Hergün Aradıysam Tab - Teoman notaları,
Hergün Aradıysam Tab - Teoman tablar bas tablar akord akor oku



iletisim  Reklam  Gizlilik sözlesmesi
Diger sitelerimize baktiniz mi ? Radyo Dinle - milli piyango sonuclari - 2017 yeni yil mesajlari - Güzel sözler Sohbet 2003- 2016 Canim.net Her hakki saklidir.