Güzel sözler | Fıkra | Hikaye | Şiir - Şair| Şarkı sözleri | Türküler | Sohbet odaları | Rüya | Sağlık | Biyografi | islam | Güzeller | Paylaş


Canim.net
Akorlar
Akor Ekle
Şarkı sözleri
Yabancı şarkı sözleri
Çeviriler
Türkü
A  B  C  Ç  D  E  F  G  Ğ  H  I  İ  J  K  L  M  N  O  Ö  P  R  S  Ş  T  U  Ü  V  Y  Z 



Her Şeyde Biraz Sen Varsın - Gökhan Özen



HERŞEYDE BİRAZ SEN VARSIN

intro:
|----9-----8-----11---
|---6-----6-----11----
|--6-----6-----10-----
|-8-----8-----8-------
|---------------------
|---------------------

solo:
Bbm F# D#m G# Am#
|-----1---2p1--1----------2---4p2-1-2--------6---9---8----------------4&6---
|--1h2-------4---------1h2----------------6h7---------7------9-6---------7--
|-3------------------3-------------------8----------------------8-5---------
|---------------------------------------------------------------------------
|---------------------------------------------------------------------------
|---------------------------------------------------------------------------

Bbm F# D#m G# Am#
|------------1---2p1--1---------2---4p2-1-2--------6---9---8-----8p6-------6---
|-2--1----1h2-------4--------1h2----------------6h7---------7------9p6h9-----7-
|--------3-----------------3-------------------8-------------------------------
|------------------------------------------------------------------------------
|------------------------------------------------------------------------------
|------------------------------------------------------------------------------

Bbm

G# Am# F# Bbm
Sorma sorma nasıl geçti sensiz yıllar yıllar
G# Am# F# Bbm
Bir aşk rüzgarıydı esip geçti ardında boynu bükük hatıralar
Am# G#
Nöbet tutar yokluğun vurur geçer gecenin ortasında
F# Bbm
Kıydılar bize gençliğimize hesabım yalancı yıllarla
G# Am#
OoOoooo... OoOooo...

[Am#... Bbm
[Herşeyde biraz sen varsın
[ G#
[Baktığım heryerde gözlerin
x2 [ D#m
[Koklarım yastığını hala
[G#m F# Bbm
[İçimdeki hüzünlerde senin izlerin






Her Şeyde Biraz Sen Varsın - Gökhan Özen akoru
Her Şeyde Biraz Sen Varsın - Gökhan Özen notaları,
Her Şeyde Biraz Sen Varsın - Gökhan Özen tablar bas tablar akord akor oku



iletisim  Reklam  Gizlilik sözlesmesi
Diger sitelerimize baktiniz mi ? Radyo Dinle - milli piyango sonuclari - 2017 yeni yil mesajlari - Güzel sözler Sohbet 2003- 2016 Canim.net Her hakki saklidir.