Güzel sözler | Fıkra | Hikaye | Şiir - Şair| Şarkı sözleri | Türküler | Sohbet odaları | Rüya | Sağlık | Biyografi | islam | Güzeller | Paylaş


Canim.net
Akorlar
Akor Ekle
Şarkı sözleri
Yabancı şarkı sözleri
Çeviriler
Türkü
A  B  C  Ç  D  E  F  G  Ğ  H  I  İ  J  K  L  M  N  O  Ö  P  R  S  Ş  T  U  Ü  V  Y  Z 



Hauntedtab - Evanescence



Haunted Cep melodisi için tıkla!
key:
& = slide
pm= palm mute
h = hammer on
p = pull off
^ = bend
~ = Let note ring
# = artificial harmonic

intro
electronics


chorus I
gI
--------------------------------------------------------------------------------------------------
--------------------------------------------------------------------------------------------------
--------------------------------------------------------------------------------------------------
------------------------------7---7-7-------------------------------------------------------------
--------------2---2-2--&10-9--5---5-5--&9-7--2---2-2--&10-9-10-9-7-9------------------------------
--------------0---0-0---------5---5-5--------0---0-0----------------------------------------------x1

--------------------------------------------------------------------------------------------------
--------------------------------------------------------------------------------------------------
--------------------------------------------------------------------------------------------------
-------------------7---7-7------------------------------------------------------------------------
---2---2-2--&10-9--5---5-5--&9-7--2---2-2--&10-9-10-9-7-9-2---------------------------------------
---0---0-0---------5---5-5--------0---0-0-----------------0---------------------------------------x1

gII
--------------------------------------------------------------------------------------------------
--------------------------------------------------------------------------------------------------
--------------------------------------------------------------------------------------------------
-----------------------------------7---7-7---7-7------------------------------4---4---4---4-&-7---
--------------2---2-2---2-2---x-x--5---5-5---5-5---x-x--2---2-2---2-2---x-x---2---2---2---2-&-5---
--------------0---0-0---0-0---x-x--5---5-5---5-5---x-x--0---0-0---0-0---x-x-----------------------x1

--------------------------------------------------------------------------------------------------
--------------------------------------------------------------------------------------------------
--------------------------------------------------------------------------------------------------
------------------------7---7-7---7-7------------------------------4---4---4---4-&-7--------------
---2---2-2---2-2---x-x--5---5-5---5-5---x-x--2---2-2---2-2---x-x---2---2---2---2-&-5--------------
---0---0-0---0-0---x-x--5---5-5---5-5---x-x--0---0-0---0-0---x-x----------------------------------x1



verse I
gI & gII
--------------------------------------------------------------------------------------------------------
--------------------------------------------------------------------------------------------------------
--------------------------------------------------------------------------------------------------------
--------------------------------------------------------------------------------------------------------
---2-2-2--2-2-2---2--2--------2-2-2--2-2-2---2--2--------2-2-2--2-2-2---2-2--------2-2-2--2-2-2---2-2---
---0-0-0--0-0-0---0--0--------0-0-0--0-0-0---0--0--------0-0-0--0-0-0---0-0--------0-0-0--0-0-0---0-0---x2
pm - - - - - - - - - - - - - - - - - - - - - - - -



chorus II
gI
--------------------------------------------------------------------------------------------------
--------------------------------------------------------------------------------------------------
--------------------------------------------------------------------------------------------------
------------------------------7---7-7-------------------------------------------------------------
--------------2---2-2--&10-9--5---5-5--&9-7--2---2-2--&10-9-10-9-7-9------------------------------
--------------0---0-0---------5---5-5--------0---0-0----------------------------------------------x1

--------------------------------------------------------------------------------------------------
--------------------------------------------------------------------------------------------------
--------------------------------------------------------------------------------------------------
-------------------7---7-7------------------------------------------------------------------------
---2---2-2--&10-9--5---5-5--&9-7--2---2-2--&10-9--------------------------------------------------
---0---0-0---------5---5-5--------0---0-0---------------------------------------------------------x1

gII
--------------------------------------------------------------------------------------------------
--------------------------------------------------------------------------------------------------
--------------------------------------------------------------------------------------------------
-----------------------------------7---7-7---7-7------------------------------4---4---4---4-&-7---
--------------2---2-2---2-2---x-x--5---5-5---5-5---x-x--2---2-2---2-2---x-x---2---2---2---2-&-5---
--------------0---0-0---0-0---x-x--5---5-5---5-5---x-x--0---0-0---0-0---x-x-----------------------x1

--------------------------------------------------------------------------------------------------
--------------------------------------------------------------------------------------------------
--------------------------------------------------------------------------------------------------
------------------------7---7-7---7-7------------------------------4---4---4---4-&----------------
---2---2-2---2-2---x-x--5---5-5---5-5---x-x--2---2-2---2-2---x-x---2---2---2---2-&----------------
---0---0-0---0-0---x-x--5---5-5---5-5---x-x--0---0-0---0-0---x-x----------------------------------x1



solo
gI
-----------------------------------------------------------------------------------------------------------
--8-7-5-5^7-5~-55--5^7-4-4h5p4---4-------------------------------------------------------------------------
-------------------------------6---6-4-6-6#^8-4h6~-6^8-4h6~-4h6p4----4h6p4-----4-6#------------------------
------------------------------------------------------------------6p4-----6p4h6----------------------------
-----------------------------------------------------------------------------------------------------------
-----------------------------------------------------------------------------------------------------------

-----------------------------------------------------------------------------------------------------------
---------------------------------------------------------5-4-2-4^5-4p2-5p4p2-5p4p2-5p4p2-5p4p2-5p4p2-------
--4h6p4---4---------------------------------4h6-4-6-6^8----------------------------------------------------
--------7---7-6-5---4-----------------4h6h7----------------------------------------------------------------
------------------7---7-6---4#--4h6h7----------------------------------------------------------------------
--------------------------7--------------------------------------------------------------------------------

-----------------------------------------------------------------------------------------------------------
--5&7-5-4-5-4-5-4#-5-5&7-5-7-7&9-10-9-7-7h9p7-5-7-5~~-------------------------------------------------------
-----------------------------------------------------------------------------------------------------------
-----------------------------------------------------------------------------------------------------------
-----------------------------------------------------------------------------------------------------------
-----------------------------------------------------------------------------------------------------------


gII
-----------------------------------------------------------------------------------------------------------
-----------------------------------------------------------------------------------------------------------
-----------------------------------------------------------------------------------------------------------
--&-6--6--6--6---4--4--4--4-&-6--6--6--6--------------6--6--6--6--4--4--4--4-&-6--6--6--6--4--4--4--4---
--&-4--4--4--4---2--2--2--2-&-4--4--4--4--6--6--6--6--4--4--4--4--2--2--2--2-&-4--4--4--4--2--2--2--2---
-------------------------------------------4--4--4--4------------------------------------------------------



chorus III
gI
--------------------------------------------------------------------------------------------------
--------------------------------------------------------------------------------------------------
--------------------------------------------------------------------------------------------------
------------------------------7---7-7-------------------------------------------------------------
--------------2---2-2--&10-9--5---5-5--&9-7--2---2-2--&10-9-10-9-7-9------------------------------
--------------0---0-0---------5---5-5--------0---0-0----------------------------------------------x1

--------------------------------------------------------------------------------------------------
--------------------------------------------------------------------------------------------------
--------------------------------------------------------------------------------------------------
-------------------7---7-7------------------------------------------------------------------------
---2---2-2--&10-9--5---5-5--&9-7--2---2-2--&10-9--------------------------------------------------
---0---0-0---------5---5-5--------0---0-0---------------------------------------------------------x1

gII
---------------------------------------------------------------------------------------
---------------------------------------------------------------------------------------
---------------------------------------------------------------------------------------
------------------------7---7-7---7-7------------------------------4---4---4---4-&-7---
---2---2-2---2-2---x-x--5---5-5---5-5---x-x--2---2-2---2-2---x-x---2---2---2---2-&-5---
---0---0-0---0-0---x-x--5---5-5---5-5---x-x--0---0-0---0-0---x-x-----------------------x1

---------------------------------------------------------------------------------------
---------------------------------------------------------------------------------------
---------------------------------------------------------------------------------------
------------------------7---7-7---7-7------------------------------4---4---4---4-&-7---
---2---2-2---2-2---x-x--5---5-5---5-5---x-x--2---2-2---2-2---x-x---2---2---2---2-&-5---
---0---0-0---0-0---x-x--5---5-5---5-5---x-x--0---0-0---0-0---x-x-----------------------x1


End
gI & gII
--------------------------
--------------------------
--------------------------
--------------------------
---2-2-2--2-2-2---2--2----
---0-0-0--0-0-0---0--0----x2
pm - - - - - -




Hauntedtab - Evanescence akoru
Hauntedtab - Evanescence notaları,
Hauntedtab - Evanescence tablar bas tablar akord akor oku



iletisim  Reklam  Gizlilik sözlesmesi
Diger sitelerimize baktiniz mi ? Radyo Dinle - milli piyango sonuclari - 2017 yeni yil mesajlari - Güzel sözler Sohbet 2003- 2016 Canim.net Her hakki saklidir.