Güzel sözler | Fıkra | Hikaye | Şiir - Şair| Şarkı sözleri | Türküler | Sohbet odaları | Rüya | Sağlık | Biyografi | islam | Güzeller | Paylaş


Canim.net
Akorlar
Akor Ekle
Şarkı sözleri
Yabancı şarkı sözleri
Çeviriler
Türkü
A  B  C  Ç  D  E  F  G  Ğ  H  I  İ  J  K  L  M  N  O  Ö  P  R  S  Ş  T  U  Ü  V  Y  Z 



Hatırla Sevgilimtab - Dizi Müzikleri



|:Dm A7
E|------|------|------|------|------|------|------|------|
B|------|------|------|------|------|------|------|------|
G|----2-|0-----|2-----|------|----2-|0-----|------|------|
D|0-3---|----3-|------|------|0-3---|----3-|2-----|------|

Dm :|
E|------|------|------|------|------|------|------|------|
B|------|------|------|------|------|------|------|------|
G|----0-|------|0-----|3-----|2-----|0-----|------|------|
D|2-3---|3---2-|------|------|--2-3-|--3-2-|0-----|------|

|:A7 Dm Gm Dm
E|----0-|------|------|------|------|------|------|------|
B|2-3---|2-----|------|------|------|------|------|------|
G|------|----3-|2-----|------|3---3-|2-0---|2-----|------|
D|------|------|------|------|------|----3-|------|------|

Gm Dm A7 Dm :|
E|------|------|------|------|------|------|------|------|
B|------|------|------|------|------|------|------|------|
G|3---3-|2-0---|2---0-|------|----0-|------|------|------|
D|------|----3-|------|3-2-0-|2-3---|3---2-|0-----|------|




Hatırla Sevgilimtab - Dizi Müzikleri akoru
Hatırla Sevgilimtab - Dizi Müzikleri notaları,
Hatırla Sevgilimtab - Dizi Müzikleri tablar bas tablar akord akor oku



iletisim  Reklam  Gizlilik sözlesmesi
Diger sitelerimize baktiniz mi ? Radyo Dinle - milli piyango sonuclari - 2017 yeni yil mesajlari - Güzel sözler Sohbet 2003- 2016 Canim.net Her hakki saklidir.