Güzel sözler | Fıkra | Hikaye | Şiir - Şair| Şarkı sözleri | Türküler | Sohbet odaları | Rüya | Sağlık | Biyografi | islam | Güzeller | Paylaş


Canim.net
Akorlar
Akor Ekle
Şarkı sözleri
Yabancı şarkı sözleri
Çeviriler
Türkü
A  B  C  Ç  D  E  F  G  Ğ  H  I  İ  J  K  L  M  N  O  Ö  P  R  S  Ş  T  U  Ü  V  Y  Z 



Hate Crew Deathroll tab - Children of Bodom



after keyboard intro..
--------------------------------------------------------------
--------------------------------------------------------------
-7-9-7-9----------7-9-7-9---------7-9-7-9---------2-2-2-5-5-5-
-7-9-7-9----------7-9-7-9---------7-9-7-9---------2-2-2-5-5-5-
-5-7-5-7--0-0-0---5-7-5-7--0-0-0--5-7-5-7--0-0-0--0-0-0-3-3-3-
--------------------------------------------------------------
. . . . . . . . .


--------------------------------------------------------------
--------------------------------------------------------------
-7-9-7-9----------7-9-7-9---------7-9-7-9---------9-9-9-7-7-7-
-7-9-7-9----------7-9-7-9---------7-9-7-9---------9-9-9-7-7-7-
-5-7-5-7--0-0-0---5-7-5-7--0-0-0--5-7-5-7--0-0-0--7-7-7-5-5-5-
--------------------------------------------------------------
. . . . . . . . .

--------------------------------------------------------------
--------------------------------------------------------------
-7-9-7-9----------7-9-7-9---------7-9-7-9---------2-2-2-5-5-5-
-7-9-7-9----------7-9-7-9---------7-9-7-9---------2-2-2-5-5-5-
-5-7-5-7--0-0-0---5-7-5-7--0-0-0--5-7-5-7--0-0-0--0-0-0-3-3-3-
--------------------------------------------------------------
. . . . . . . . .

--------------------------------------------------------------
--------------------------------------------------------------
-7-9-7-9----------7-9-7-9---------7-9-7-9---------2-2-2-5-5-5-
-7-9-7-9----------7-9-7-9---------7-9-7-9---------2-2-2-5-5-5-
-5-7-5-7--0-0-0---5-7-5-7--0-0-0--5-7-5-7--0-0-0--7-7-7-5-5-5-
--------------------------------------------------------------
. . . . . . . . .

--------------------------------------------------------------
--------------------------------------------------------------
-7-9-7-9----------7-9-7-9---------7-9-7-9---------2-2-2-5-5-5-
-7-9-7-9----------7-9-7-9---------7-9-7-9---------2-2-2-5-5-5-
-5-7-5-7--0-0-0---5-7-5-7--0-0-0--5-7-5-7--0-0-0--0-0-0-3-3-3-
--------------------------------------------------------------
. . . . . . . . .



verse (play as many times as needed)
--------------------------------------------------------------
--------------------------------------------------------------
-7-9-7-9----------7-9-7-9---------7-9-7-9---------2-2-2-5-5-5-
-7-9-7-9----------7-9-7-9---------7-9-7-9---------2-2-2-5-5-5-
-5-7-5-7--0-0-0---5-7-5-7--0-0-0--5-7-5-7--0-0-0--0-0-0-3-3-3-
--------------------------------------------------------------
. . . . . . . . . . . . . . . . . . . . . . . . . . .

----------------------------------------------------------------
----------------------------------------------------------------
-7-9-7-9----------7-9-7-9---------7-9-7-9---------2-------2-----
-7-9-7-9----------7-9-7-9---------7-9-7-9---------2-------2-----
-5-7-5-7--0-0-0---5-7-5-7--0-0-0--5-7-5-7--0-0-0--0-0-0-0-0-0-0-
----------------------------------------------------------------
. . . . . . . . . . . . . . . . . . . . . . . . . .

--------------------------------------------------------------
--------------------------------------------------------------
-7-9-7-9----------7-9-7-9---------7-9-7-9---------2-2-2-5-5-5-
-7-9-7-9----------7-9-7-9---------7-9-7-9---------2-2-2-5-5-5-
-5-7-5-7--0-0-0---5-7-5-7--0-0-0--5-7-5-7--0-0-0--0-0-0-3-3-3-
--------------------------------------------------------------
. . . . . . . . . . . . . . . . . . . . . . . . . . .

----------------------------------------------------------------
----------------------------------------------------------------
-7-9-7-9----------7-9-7-9---------7-9-7-9---------2-------2-----
-7-9-7-9----------7-9-7-9---------7-9-7-9---------2-------2-----
-5-7-5-7--0-0-0---5-7-5-7--0-0-0--5-7-5-7--0-0-0--0-0-0-0-0-0-0-
----------------------------------------------------------------
. . . . . . . . . . . . . . . . . . . . . . . . . .


----------------------------------------------------
----------------------------------------------------
-5-----5---7----5-----5---7---5-----5---7-9-9-7-7-7-
-5-----5---7----5-----5---7---5-----5---7-9-9-7-7-7-
-3-0-0-3-0-5----3-0-0-3-0-5---3-0-0-3-0-5-7-7-5-5-5-
----------------------------------------------------



----------------------------------------------
----------------------------------------------
-2------3-5----2------2-5----2------3-5-7-5---
-2------3-5----2------2-5----2------3-5-7-5---
-0-0000-1-3----0-0000-1-3----0-0000-1-3-5-3---
----------------------------------------------
.... .... ....



all palm muted..
-------12---------12---------
-----------------------------
--9-9-----9---9-9----9-------
----------------------------- play 4x
-----------------------------
-----------------------------




Hate Crew Deathroll tab - Children of Bodom akoru
Hate Crew Deathroll tab - Children of Bodom notaları,
Hate Crew Deathroll tab - Children of Bodom tablar bas tablar akord akor oku



iletisim  Reklam  Gizlilik sözlesmesi
Diger sitelerimize baktiniz mi ? Radyo Dinle - milli piyango sonuclari - 2017 yeni yil mesajlari - Güzel sözler Sohbet 2003- 2016 Canim.net Her hakki saklidir.