Güzel sözler | Fıkra | Hikaye | Şiir - Şair| Şarkı sözleri | Türküler | Sohbet odaları | Rüya | Sağlık | Biyografi | islam | Güzeller | Paylaş


Canim.net
Akorlar
Akor Ekle
Şarkı sözleri
Yabancı şarkı sözleri
Çeviriler
Türkü
A  B  C  Ç  D  E  F  G  Ğ  H  I  İ  J  K  L  M  N  O  Ö  P  R  S  Ş  T  U  Ü  V  Y  Z 



Hate Crew Deathroll Bass - Children of Bodom



3x
F||--------------------||---------------------------|--------------------------|
C||*------------------*||*--------------------------|--------------------------|
G||--------------------||---5--7--5--7--------------|--5--7--5--7--------------|
D||*------------------*||*--------------0--0--0--0--|--------------0--0--0--0--|
A||--------------------||---------------------------|--------------------------|



--------------------------|---------------------------||
--------------------------|--------------------------*||
--5--7--5--7--------------|--0--0--0--0--3--3--3--3---||
--------------0--0--0--0--|--------------------------*||
--------------------------|---------------------------||



--------------------------||---------------------------|
--------------------------||*--------------------------|
--------------------------||---5--7--5--7--------------|
--0--0--0--0--------------||*--------------0--0--0--0--|
--------------4--4--4--4--||---------------------------|



--------------------------|--------------------------|
--------------------------|--------------------------|
--5--7--5--7--------------|--5--7--5--7--------------|
--------------0--0--0--0--|--------------0--0--0--0--|
--------------------------|--------------------------|



--------------------------|--------------------------|
--------------------------|--------------------------|
--0--0--0--0--3--3--3--3--|--5--7--5--7--------------|
--------------------------|--------------0--0--0--0--|
--------------------------|--------------------------|



--------------------------|--------------------------|
--------------------------|--------------------------|
--5--7--5--7--------------|--5--7--5--7--------------|
--------------0--0--0--0--|--------------0--0--0--0--|
--------------------------|--------------------------|



--------------------------||--------------------------|
-------------------------*||--------------------------|
--------------------------||--5--7--5--7--------------|
--0--0----0--0--0--0--0--*||--------------0--0--0--0--|
--------------------------||--------------------------|



--------------------------|--------------------------|-------------------------|
--------------------------|--------------------------|-------------------------|
--5--7--5--7--------------|--5--7--5--7--------------|-------------------------|
--------------0--0--0--0--|--------------0--0--0--0--|--0--0----0--0--0--0--0--|
--------------------------|--------------------------|-------------------------|



|--------------------------|-------------------------|-------------------------|
|*-------------------------|-------------------------|-------------------------|
|--------------------------|-------------------------|-------------------------|
|*--1--0----0--1--0--3--0--|--1--0----0--1--0--3--0--|--1--0----0--1--0--3--0--|
|--------------------------|-------------------------|-------------------------|


2x
---------------------------||-------------------------|
--------------------------*||-------------------------|
---------------------------||-------------------------|
--0--0--0--0--------------*||--1--0----0--1--0--3--0--|
--------------4--4--4--4---||-------------------------|



-------------------------|-------------------------|--------------------------|
-------------------------|-------------------------|--------------------------|
-------------------------|-------------------------|--------------------------|
--1--0----0--1--0--3--0--|--1--0----0--1--0--3--0--|--0--0--0--0--------------|
-------------------------|-------------------------|--------------4--4--4--4--|



------------------------|-------------------------|------------------------|
------------------------|-------------------------|------------------------|
--------7----------8----|--7----------------------|--------7----------8----|
--0--0-------0--0-------|-------0--0--0--0--0--0--|--0--0-------0--0-------|
------------------------|-------------------------|------------------------|



-------------------------|------------------------|-------------------------|
-------------------------|------------------------|-------------------------|
--7----------------------|--------7----------8----|--7----------------------|
-------0--0--0--0--0--0--|--0--0-------0--0-------|-------0--0--0--0--0--0--|
-------------------------|------------------------|-------------------------|



------------------------|-------------------------|-------------------|
------------------------|-------------------------|-------------------|
--------7----------8----|--7----------------------|-------------------|
--0--0-------0--0-------|-------0--0--0--0--0--0--|--0----------------|
------------------------|-------------------------|-------------------|



------------------||---------------------------|--------------------------|
------------------||*--------------------------|--------------------------|
------------------||---5--7--5--7--------------|--5--7--5--7--------------|
------------------||*--------------0--0--0--0--|--------------0--0--0--0--|
------------------||---------------------------|--------------------------|



--------------------------|---------------------------||
--------------------------|--------------------------*||
--5--7--5--7--------------|--0--0--0--0--3--3--3--3---||
--------------0--0--0--0--|--------------------------*||
--------------------------|---------------------------||



-------------------------|--------------------------|--------------------------|
-------------------------|--------------------------|--------------------------|
-------------------------|--5--7--5--7--------------|--5--7--5--7--------------|
--0--0----0--0--0--0--0--|--------------0--0--0--0--|--------------0--0--0--0--|
-------------------------|--------------------------|--------------------------|



--------------------------|-------------------------|--------------------------|
--------------------------|-------------------------|--------------------------|
--5--7--5--7--------------|-------------------------|--------------------------|
--------------0--0--0--0--|--0--0----0--0--0--0--0--|--1--0--0--0--1--0--3--0--|
--------------------------|-------------------------|--------------------------|



--------------------------|--------------------------|
--------------------------|--------------------------|
--------------------------|--------------------------|
--1--0--0--0--1--0--3--0--|--1--0--0--0--1--0--3--0--|
--------------------------|--------------------------|



--------------------------|--------------------------|
--------------------------|--------------------------|
--7--7--7--7--6--6--6--6--|--------------------------|
--------------------------|--1--0--0--0--1--0--3--0--|
--------------------------|--------------------------|



--------------------------|--------------------------|
--------------------------|--------------------------|
--------------------------|--------------------------|
--1--0--0--0--1--0--3--0--|--1--0--0--0--1--0--3--0--|
--------------------------|--------------------------|



--------------------------||---------------------------|
--------------------------||*--------------------------|
--7--7--7--7--6--6--6--6--||---------------------------|
--------------------------||*--1--0--0--0--1--0--3--0--|
--------------------------||---------------------------|



--------------------------|--------------------------|
--------------------------|--------------------------|
--------------------------|--------------------------|
--1--0--0--0--1--0--3--0--|--1--0--0--0--1--0--3--0--|
--------------------------|--------------------------|



---------------------------||--------------------------|
--------------------------*||--------------------------|
--7--7--7--7--6--6--6--6---||--3--3--3--3--3--3--3--3--|
--------------------------*||--------------------------|
---------------------------||--------------------------|



--------------------------|--------------------------|
--------------------------|--------------------------|
--3--3--3--3--5--5--5--5--|--------------------------|
--------------------------|--0--0--0--0--0--0--0--0--|
--------------------------|--------------------------|



--------------------------|--------------------------|
--------------------------|--------------------------|
--------------------------|--3--3--3--3--3--3--3--3--|
--0--0--0--0--0--0--0--0--|--------------------------|
--------------------------|--------------------------|



--------------------------|--------------------------|
--------------------------|--------------------------|
--3--3--3--3--5--5--5--5--|--------------------------|
--------------------------|--0--0--0--0--0--0--0--0--|
--------------------------|--------------------------|



--------------------------|--------------------------|
--------------------------|--------------------------|
--------------------------|--------------------------|
--0--0--0--0--0--0--0--0--|--3--3--3--3--3--3--3--3--|
--------------------------|--------------------------|



--------------------------|--------------------------|
--------------------------|--------------------------|
--------------------------|--2--2--2--2--2--2--2--2--|
--3--3--3--3--3--3--3--3--|--------------------------|
--------------------------|--------------------------|



--------------------------|--------------------------|
--------------------------|--------------------------|
--2--2--2--2--2--2--2--2--|--3--3--3--3--3--3--3--3--|
--------------------------|--------------------------|
--------------------------|--------------------------|



--------------------------|--------------------------|
--------------------------|--------------------------|
--5--5--5--5--5--5--5--5--|--------------------------|
--------------------------|--0--0--0--0--0--0--0--0--|
--------------------------|--------------------------|



--------------------------|------------------------|-------------------------|
--------------------------|------------------------|-------------------------|
--------------------------|--------7----------8----|--7----------------------|
--0--0--0--0--0--0--0--0--|--0--0-------0--0-------|-------0--0--0--0--0--0--|
--------------------------|------------------------|-------------------------|



------------------------|-------------------------|------------------------|
------------------------|-------------------------|------------------------|
--------7----------8----|--7----------------------|--------7----------8----|
--0--0-------0--0-------|-------0--0--0--0--0--0--|--0--0-------0--0-------|
------------------------|-------------------------|------------------------|



-------------------------|------------------------|-------------------------|
-------------------------|------------------------|-------------------------|
--7----------------------|--------7----------8----|--7----------------------|
-------0--0--0--0--0--0--|--0--0-------0--0-------|-------0--0--0--0--0--0--|
-------------------------|------------------------|-------------------------|



-------------------|------------------|--------------------|------------------|
-------------------|------------------|--------------------|------------------|
-------------------|------------------|--------------------|------------------|
--0----------------|------------------|--0------0----------|------------------|
-------------------|------------------|--------------------|------------------|



---------------------|------------------|----------------------|
---------------------|------------------|----------------------|
---------------------|------------------|----------------------|
--0------0------0----|------------------|--0------0--------12&-|
---------------------|------------------|----------------------|



-------------------|----||
-------------------|----||
-------------------|----||
----------------0--|----||
-------------------|----||




Hate Crew Deathroll Bass - Children of Bodom akoru
Hate Crew Deathroll Bass - Children of Bodom notaları,
Hate Crew Deathroll Bass - Children of Bodom tablar bas tablar akord akor oku



iletisim  Reklam  Gizlilik sözlesmesi
Diger sitelerimize baktiniz mi ? Radyo Dinle - milli piyango sonuclari - 2017 yeni yil mesajlari - Güzel sözler Sohbet 2003- 2016 Canim.net Her hakki saklidir.