Güzel sözler | Fıkra | Hikaye | Şiir - Şair| Şarkı sözleri | Türküler | Sohbet odaları | Rüya | Sağlık | Biyografi | islam | Güzeller | Paylaş


Canim.net
Akorlar
Akor Ekle
Şarkı sözleri
Yabancı şarkı sözleri
Çeviriler
Türkü
A  B  C  Ç  D  E  F  G  Ğ  H  I  İ  J  K  L  M  N  O  Ö  P  R  S  Ş  T  U  Ü  V  Y  Z 



Frostdemonstorm tab - Immortal



Riff 1 1x (untill 0:06)
e---------------------------------------------------------------|
b---------------------------------------------------------------|
G---------------------------------------------------------------|
d---------------------------------------------------------------|
A---------------------------------------------------------------|
E-111000111222111222111000111000-111000111222000222111222111000-|

Riff 2 1x
e-------------------------------|
b-------------------------------|
G-------------------------------|
d-------------------------------|
A-1-2-1-2-1-2-1-2-3-2-3-2-3-2-1-|
E-------------------------------|
(Note: Speed pick this riff extremly fast)

Riff 3 4x
e---------------------------------------|
b---------------------------------------|
G---------------------------------------|
d---5-4---5-4----------5-4---5-4--------|
A---3-2---3-2-3336-----3-2---3-2-223366-|
E-0-----0------------0-----0------------|
p.m. p.m. p.m. p.m.

Riff 4 2x
e----------------------------------|
b----------------------------------|
G----------------------------------|
d----------------------------------|
A---10-9---10-9-7---10-9-7-9----7--|
E-0------0--------0----------10----|

Riff 5 1x
e--------------|
b--------------|
G--------------|
d--------------|
A---9-8---9-8--|
E-0-----0------|

Riff 6 8x
e-------------|
b-------------|
G-------------|
d-------------|
A-------------|
E-0-0-0--0-0--|
palm mute

(LEAD ???) *If you got the time and patience, please figure out this solo.
Or send me an e-mail if you have figured out at least a few parts of the lead.
Then I can work from there and try to finish the rest of the lead...Thanks!

Riff 7 5x
e----------------------------------------------------------|
b----------------------------------------------------------|
G----------------------------------------------------------|
d----------------------------------------------------------|
A---4-5---4-5-7----4-5---4-7-5----4-5---4-5-7-777777555555-|
E-0-2-3-0-2-3-5--0-2-3-0-2-5-3--0-2-3-0-2-3-5--------------|
p.m. p.m. p.m. p.m. p.m. p.m.

End Riff 1x
e----------------|
b----------------|
G----------------|
d----------------|
A---4-5---4-5-7--|
E-0-2-3-0-2-3-5--|
p.m. p.m.

Song-Stracture:

Riff 1 1x (play fast)
Riff 2 1x (play fast)
Riff 3 4x
Riff 4 2x
Riff 5 1x
Riff 6 8x (fast)
Riff 4 2x
Riff 5 1x
Riff 6 8x (fast)
Riff 4 2x
Riff 5 1x
Riff 1 1x (play fast)
Riff 2 1x (play fast)
Riff 3 4x
Riff 4 2x w&clean effect
Riff 5 1x clean
Riff 4 2x w&distortion
Riff 5 1x
Riff 6 20x w&lead(???). After lead play Riff 6 6 more times then play...
Riff 7 5x and then play...
End Riff 1x...End.




Frostdemonstorm tab - Immortal akoru
Frostdemonstorm tab - Immortal notaları,
Frostdemonstorm tab - Immortal tablar bas tablar akord akor oku



iletisim  Reklam  Gizlilik sözlesmesi
Diger sitelerimize baktiniz mi ? Radyo Dinle - milli piyango sonuclari - 2017 yeni yil mesajlari - Güzel sözler Sohbet 2003- 2016 Canim.net Her hakki saklidir.