Güzel sözler | Fıkra | Hikaye | Şiir - Şair| Şarkı sözleri | Türküler | Sohbet odaları | Rüya | Sağlık | Biyografi | islam | Güzeller | Paylaş


Canim.net
Akorlar
Akor Ekle
Şarkı sözleri
Yabancı şarkı sözleri
Çeviriler
Türkü
A  B  C  Ç  D  E  F  G  Ğ  H  I  İ  J  K  L  M  N  O  Ö  P  R  S  Ş  T  U  Ü  V  Y  Z 



From Here To Eternity tab - Iron Maiden



From Here To Eternity (Harris)
Transcribed by Oskar "The Seventh Son" Wigren (wigren@skelleftea.mail.telia.com)

Riff 1:
E-------------------|---------------------|
B-------------------|---------------------|
G--7-----7---7---7--|--5-----5---5---5----|
D-------------------|---------------------|
A--5---5---5---5----|--3---3---3---3---3--|
E-------------------|---------------------|

E----------------------|-------------------|
B----------------------|-------------------|
G--4-----4----5--4--5--|--7-----7---7---5--|
D----------------------|-------------------|
A--2---2---2--3--2--3--|--5---5---5---3----|
E----------------------|-------------------|

Solo during Riff 1:
E-------------------------------------------|
B-------------------------------------------|
G---------10----10----10-12-12b14b12-10-----|
D--12--12----12----12-------------------12--|
A-------------------------------------------|
E-------------------------------------------|

E----------------------------------------------|
B---------------------------------------13b15--|
G---------10----10----10-12-12b14b12-10--------|
D--12--12----12----12--------------------------|
A----------------------------------------------|
E----------------------------------------------|

E-------------------------------------------|
B-------------------------------------------|
G---------10----10----10-12-12b14b12-10-----|
D--12--12----12----12-------------------12--|
A-------------------------------------------|
E-------------------------------------------|

E---------------------13-15-15b17b15-13-20b22--|
B---------------13-15--------------------------|
G------10-12-14--------------------------------|
D--12------------------------------------------|
A----------------------------------------------|
E----------------------------------------------|

End of solo.

Verse:
She fell in love with his greasy machine
E----------------------|-----------------------|
B----------------------|-----------------------|
G--9-------------------|--7--------------------|
D--9-------------------|--7--------------------|
A--7-------------------|--5--------------------|
E----------------------|-----------------------|

She leaned over wiped his kickstart clean
E----------------------|-----------------------|
B----------------------|-----------------------|
G--5-------------------|--7--------------------|
D--5-------------------|--7--------------------|
A--3-------------------|--5--------------------|
E----------------------|-----------------------|

End of verse.

Chorus:
Hell aint a bad place
E------0--------------------------|
B------0--------------------------|
G------1-------2-1----------------|
D------2--------------------------|
A------2-----2--------------------|
E--0---0---0-------0-0-0-0-0-0-0--|

Hell is from here to eternity
E------------------------------------|
B------------------------------------|
G--2--1---2--1---2--1----------------|
D-------2------2---------------------|
A------------------------------------|
E---------------------0-0-0-0-0-0-0--|

End of chorus.

Riff 2:
E-------------------|---------------------|
B-------------------|---------------------|
G--9-----9---9---9--|--7-----7---7---7----|
D-------------------|---------------------|
A--7---7---7---7----|--5---5---5---5---5--|
E-------------------|---------------------|

E----------------------|-------------------|
B----------------------|-------------------|
G--6-----6----7--6--7--|--9-----9---9---7--|
D----------------------|-------------------|
A--4---4---4--5--4--5--|--7---7---7---5----|
E----------------------|-------------------|

E-------------------|---------------------|
B-------------------|---------------------|
G--9-----9---9---9--|--7-----7---7---7----|
D-------------------|---------------------|
A--7---7---7---7----|--5---5---5---5---5--|
E-------------------|---------------------|

E----------------------|-------------------|
B----------------------|-------------------|
G--5-----5----7--5--7--|--9-----9---9---7--|
D----------------------|-------------------|
A--3---3---3--5--3--5--|--7---7---7---5----|
E----------------------|-------------------|

Solo during riff 2:
E-------------------------------------------|
B-------------------------------------------|
G---------12----12----12-14-14b16b14-12-----|
D--14--14----14----14-------------------14--|
A-------------------------------------------|
E-------------------------------------------|

E---------------------15-17-17b19b17-15-22b24--|
B---------------15-17--------------------------|
G------12-14-16--------------------------------|
D--14------------------------------------------|
A----------------------------------------------|
E----------------------------------------------|

Solo-riff 1:
E---------------------------------|
B---------------------------------|
G--9----------7----------5-----7--|
D--9----------7----------5-----7--|
A--7----------5----------3-----5--|
E---------------------------------|

Solo-riff 2:
E---------------------------------|
B---------------------------------|
G--7----------5----------3-----5--|
D--7----------5----------3-----5--|
A--5----------3----------1-----3--|
E---------------------------------|

On the fifth time of last chorus:
Hell aint a bad place
E------0----------------|----------------------|
B------0----------------|----------------------|
G------1-------2-1------|--(1)-----------------|
D------2-------2-2------|--(2)-----------------|
A------2-----2-2-2------|--(2)-----------------|
E--0---0---0------------|----------------------|

Hell is from here to e-ter---ni---ty
E------------------------------------0----------|
B------------------------------------0----------|
G--2----1-------2----1----2-----1----1----------|
D--2----2--2----2----2--2-2-----2----2----------|
A----------2------------2------------2----------|
E------------------------------------0----------|

E--(0)--------------------|-----------------------|
B--(0)--------------------|-----------------------|
G--(1)--------------------|--------------------1--|
D--(2)--------------------|--------------------2--|
A--(2)--------------------|--------------------2--|
E--(0)--------------------|--------------------0--|

Song-structure:
Riff 1 (4 times)
Verse (4 times)
Chorus (2 times)
Verse (4 times)
Chorus (4 times)
Riff 2 (2 times)
Solo-riff 1 (2 times)
Solo-riff 2 (2 times)
Chorus (5 times)
End




From Here To Eternity tab - Iron Maiden akoru
From Here To Eternity tab - Iron Maiden notaları,
From Here To Eternity tab - Iron Maiden tablar bas tablar akord akor oku



iletisim  Reklam  Gizlilik sözlesmesi
Diger sitelerimize baktiniz mi ? Radyo Dinle - milli piyango sonuclari - 2017 yeni yil mesajlari - Güzel sözler Sohbet 2003- 2016 Canim.net Her hakki saklidir.