Güzel sözler | Fıkra | Hikaye | Şiir - Şair| Şarkı sözleri | Türküler | Sohbet odaları | Rüya | Sağlık | Biyografi | islam | Güzeller | Paylaş


Canim.net
Akorlar
Akor Ekle
Şarkı sözleri
Yabancı şarkı sözleri
Çeviriler
Türkü
A  B  C  Ç  D  E  F  G  Ğ  H  I  İ  J  K  L  M  N  O  Ö  P  R  S  Ş  T  U  Ü  V  Y  Z 



Freecardtab - Dark Tranquillity



[Riff A.3]
[--7------------5---4------13---7----]
[--^------------^---^-------^---^----]
[*----------------------------------*]Gtr I
[*----------------------------------*]
[------------------------------------]
[------------------------------------]

[------------------------------------]
[-----------6---5-----------6---5----]
[*------4---------------4-----------*]Gtr II
[*----6---6---6---6---6---6---6---6-*]
[------------------------------------]
[--4----------------4----------------]
^ ^


Repeat Riff A.1
Repeat Riff A.2
Repeat Riff A.1
Repeat Riff A.3


[Riff B]
[----------------------------------------------]
[----------------------------------------------]
[*--------------------------9977---------hp---*]Gtr I
[*------7777999910101010--------101010109109--*]
[--0-------------------------------------------]
[--^----------------------0--------------------]
^

[----------------------------------------------]
[----------------------------------------------]
[*--------------------------------------------*]Gtr II
[*-2------------------------------------------*]
[--0----------------------2-----------------5--]
[--^----------------------0-----------------3--]
^ ^

[----------------------------------------------]
[----------------------------------------------]
[*-------------------------9977------77-------*]Gtr I
[*------7777999910101010-------991010--101099-*]
[--0-------------------------------------------]
[--^----------------------0--------------------]
^

[-----------------------------------------3-3--]
[-----------------------------------------3-3--]
[*----------------------------------------4-4-*]Gtr II
[*-2--------------------------------------5-5-*]
[--0---------------------2-2"---3-3"-5-5"-5-5--]
[--^---------------------0-0"---1-1"-3-3"-3-3--]
^ ^


[Riff B.1]
[----------------------------------------------]
[----------------------------------------------]
[*--------------------------9977---------hp---*]Gtr I
[*------7777999910101010--------101010109109--*]
[--0-------------------------------------------]
[--^----------------------0--------------------]
^

[----------------------------------------------]
[----------------------------------------------]
[*--------------------------------------------*]Gtr II
[*-<2>2---------------------------------------*]
[--<0>0-------------------2-----------------5--]
[-----^-------------------0-----------------3--]
^ ^

[----------------------------------------------]
[----------------------------------------------]
[*-------------------------9977------77-------*]Gtr I
[*------7777999910101010-------991010--101099-*]
[--0-------------------------------------------]
[--^----------------------0--------------------]
^

[---------------------------0----------0---0---]
[---------------------------0----------0---0---]
[*--------------------------0----------0---0--*]Gtr II
[*-2----------------------2-2----0-0---0---2--*]
[--0----------------------2------------2---3---]
[--^----------------------0------------^---^---]
^ . .


[Riff C]
[--------------------------------------]
[--------------------------------------]
[*-------------------------------hp---*]Gtr I
[*---------55557777-----55223333232---*]
[--5---8888-----------3----------------]
[--^------------------^----------------]

-Let ring-
[--0---0-------5------0---------0------]
[--3----1------5------0---------0------]
[*-2-----2-----2------0---------0-----*]Gtr II
[*-0------3----2------2---------4-----*]
[--0-----------0--0-0-3-----0-0-5------]
[--^-----------^------^---------^------]
. . . .

[--------------------------------------]
[--------------------------------------]
[*------------------------------------*]Gtr I
[*---------55557777----22335533223355-*]
[--5---8888----------3-----------------]
[--^-----------------^-----------------]

-Let ring-
[--0---0-------5-----------------------]
[--3----1------5-----------------------]
[*-2-----2-----2----------------------*]Gtr II
[*-0------3----2----------------------*]
[--0-----------0-----3---------5-------]
[--^-----------^-0-0-1-----0-0-3-------]
. . ^ . . ^


[Riff B.2]
[----------------------------------------------]
[----------------------------------------------]
[*--------------------------9977---------hp---*]Gtr I
[*------7777999910101010--------101010109109--*]
[--0-------------------------------------------]
[--^----------------------0--------------------]
........ . . . . ^ .... . . . .

[----------------------------------------------]
[----------------------------------------------]
[*--------------------------------------------*]Gtr II
[*------------------------------------------4-*]
[--7------------------7~X-2-------------2---2--]
[--5----5-5-5-8-5-7-8-^-X-0--0-0-0-0-3~~0---^--]
^ . . . . . . . ^ . . . . ^

[----------------------------------------------]
[----------------------------------------------]
[*-------------------------9977------77-------*]Gtr I
[*------7777999910101010-------991010--101099-*]
[--0-------------------------------------------]
[--^----------------------0--------------------]
........ . . . . ^...... . ... . ...

[---------------------------------0-X-0-----0--]
[---------------------------------0-X-0-----0--]
[*--------------------------------4-X-4----0-*]Gtr II
[*---------------------------2222-5-X-5----2-*]
[--7------------------7~X-2-------^-----sl--^--]
[--5----5-5-5-8-5-7-8-^-X-0--------------------]
^ . . . . . . . ^ ....


[Riff C.1]
[--------------------------------------]
[--------------------------------------]
[*-------------------------------hp---*]Gtr I
[*---------55557777-----55223333232---*]
[--5---8888-----------3----------------]
[--^------------------^----------------]
............ ........

[--0----0----0--------0-----0----0-----]
[--0----0----0--------0-----0----0-----]
[*-0----2----4--------0-----2----0----*]Gtr II
[*-4----3-3"-5-5"-----2-----3-3"-2-2"-*]
[--5-5"-^----^--------3-3"--^----^-----]
[--^------------------^----------------]
. . . . . .

[--------------------------------------]
[--------------------------------------]
[*------------------------------------*]Gtr I
[*---------55557777----22335533223355-*]
[--5---8888----------3-----------------]
[--^-----------------^-----------------]
............ ..............

[--0----0----0-------0-----------------]
[--0----0----0-------0-----------------]
[*-0----2----4-------0----------------*]Gtr II
[*-4----3-3"-5-5"----2----------------*]
[--5-5"-^----^-------3--3333333333333--]
[--^-----------------^-----------------]
. . . .............


[Riff D]
[-----------------------------------------------]
[----------------------5-5_b6_r5-----------6-5--]
[*-5~~~~~~~~~~~~5-7-5-7---------7--5-7-4"------*]Gtr I
[*-^-------------------------------------------*]
[-----------------------------------------------]
[-----------------------------------------------]
.

[-----------------------------------------------]
[-----------------------------------------------]
[*---------------------------------------------*]Gtr II
[*-2-------------2"5"2"--------------------5-4-*]
[--0-----------3"-----5"----2---------0----3-2--]
[--^---------0"--------0"---0--------------^-^--]
. . . . ... ^

[-----------------hp----------------------------]
[--5~~~~~~~~~~~6-565---8-6-5--------------------]
[*-^-----------------7---------7--5-7-4"-4_b_5-*]Gtr I
[*---------------------------------------------*]
[-----------------------------------------------]
[-----------------------------------------------]


[-----------------------------------------------]
[-----------------------------------------------]
[*---------------------------------------------*]Gtr II
[*-2--------------2"5"2"5"-----------------4-3-*]
[--0------------3"-------5"--2-------------2-0--]
[--^----------0"----------0"-0--------0-0"-3-1--]
. . . . . . . ^ . ^ ^


[Riff E]
[-------------------------------------------]
[-------------------------------------------]
[*-----------------------------------------*]Gtr I
[*-7-------7------6------------6-----------*]
[--7-------7------7--&88887777-7--55553333--]
[--5-------5------4--sl--------4------------]
^ ^ ^ ^

[-------------------------------------------]
[-------------------------------------------]
[*-----------------------------------------*]Gtr I
[*-7---------6666-----------6666-----------*]
[--7---------7777--88887777-7777--55557777--]
[--5---------4444-----------4444------------]
^ .... ....


[Riff E.1] -w&Riff E-
[-------------------------------------------------]
[------5-----------------5------------------------]
[*-------------4-5---------5-------5-------------*]Gtr II
[*---7---7---7-----7---7-----7---7---7-----------*]
[--0-------0---------0---------0-------0----------]
[----------------------------------------4-4-4-4--]
. . . . . . . . . . . . . . . . . . . . . . .

[-------5----0----------------5----0--------------]
[-------5----0----------------5----0--------------]
[*------5----4----------------5----4-------------*]Gtr II
[*------7----6----------------7----6-------------*]
[-------0----7----------------0----7--------------]
[--4-4--^----^---4-4-4-4-4-4--^----^-----------X--]
. . . . . . . .

[-------------------------------------------------]
[------5-----------------5------------------------]
[*-------------4-5---------5-------5-------------*]Gtr II
[*---7---7---7-----7---7-----7---7---7-----------*]
[--0-------0---------0---------0-------0----------]
[----------------------------------------4-4-4-4--]
. . . . . . . . . . . . . . . . . . . . . . .

[-------------------------------------------------]
[-------------------------------------------------]
[*-----------------------------------------------*]Gtr II
[*-5----5----5----5----5----5----5----5----------*]
[--7----7----7----7----7----7----7----7-----------]
[--0----0----0----0----0----0----0----0-----------]
^ ^ ^ ^ ^ ^ ^ ^


Repeat Riff B
Repeat Riff C
Repeat Riff B
Repeat Riff C


[Riff F] -Soft Clean Tone Gtrs-
[----------7---8--------12-10-8----7------]
[-----10--------------8-------------------]
[*---------------------------------------*]Gtr I
[*---------------------------------------*]
[-----------------------------------------]
[-----------------------------------------]

[-----------------------------------------]
[-----------------------------------------]
[*---9----9---9----9---------------------*]Gtr II
[*-7---10---7---10-----9-----------------*]
[--------------------7---7--10-7-10-7-10--]
[-----------------------------------------]

[----------7---8------12-10-7-8-10-8-7----]
[-----10----------------------------------]
[*---------------------------------------*]Gtr I
[*---------------------------------------*]
[-----------------------------------------]
[-----------------------------------------]

[-----------------------------------------]
[-----------------------------------------]
[*---9----9---9----9---------------------*]Gtr II
[*-7---10---7---10-----9---------9----9--*]
[--------------------7----7-10-7---10-----]
[-----------------------------------------]


Repeat Riff B
Repeat Riff C
Repeat Riff B
Repeat Riff C
Repeat Riff D
Repeat Riff E


[Riff J] -Play with Riff A-
[-----------------------------------]
[------5---------------5------------]
[*---------5---------------5-------*]Gtr I
[*---7---7-----7-----7---7-----7---*]
[--7---------7-----7---------7------]
[--^-------------5---------------5--]
^ ^

[-----------------------------------]
[----------6---5-----------6---5----]
[*-----4---------------4-----------*]Gtr I
[*---6---6---6---6---6---6---6---6-*]
[-----------------------------------]
[--4---------------4----------------]
^ ^


Repeat Riff J


[Riff K]
[----------------------------------]
[----------5-----------------------]
[*-----------------5--------------*]Gtr I
[*-----7-------------------7------*]
[-------------<5>------7-----------]
[--5---------------------------5---]
^ ^


[Riff K.1] -w&Riff K-
[--------------------------------------------------------------------------]
[--------------------------------------------------------------------------]
[*------------------------------------------------------------------------*]Gtr II
[*------------------------------------------------------------------------*]
[--2------2---2------2---2------2---2------2---2------2---2-------2---2----]
[--0------0---0------0---0------0---0------0---0------0---0-------0---0----]
. . . . . . . . . . . . .

[---------------------]
[---------------------]
[*-------------------*]Gtr II
[*-------------------*]
[--2---2------2-------]
[--0---0------0-------]
. . .


[Fill 1] -Let ring-
[---------------------------------------]
[---------------------------------------]
[*-------5--------4--------5--------4--*]Gtr II [Distortion]
[*----7--------7--------7--------7-----*]
[--8--------7--------8--------7---------]
[--^--------^--------^--------^---------]


Repeat Riff K


[Fill 2] -Let ring-
[--0------------------------0-------------------------------]
[--^------------------------^-------------------------------]
[*---4---4-4_b5_r4-------4-----4-------4-4_b5_r4-------4--*]Gtr II [Distortion]
[*-----7-----------7---6---------6---6-----------7---7--sl-*]
[------^-------------7-------------7---------------7--------]
[--------------------^-------------^---------------^--------]




Freecardtab - Dark Tranquillity akoru
Freecardtab - Dark Tranquillity notaları,
Freecardtab - Dark Tranquillity tablar bas tablar akord akor oku



iletisim  Reklam  Gizlilik sözlesmesi
Diger sitelerimize baktiniz mi ? Radyo Dinle - milli piyango sonuclari - 2017 yeni yil mesajlari - Güzel sözler Sohbet 2003- 2016 Canim.net Her hakki saklidir.