Güzel sözler | Fıkra | Hikaye | Şiir - Şair| Şarkı sözleri | Türküler | Sohbet odaları | Rüya | Sağlık | Biyografi | islam | Güzeller | Paylaş


Canim.net
Akorlar
Akor Ekle
Şarkı sözleri
Yabancı şarkı sözleri
Çeviriler
Türkü
A  B  C  Ç  D  E  F  G  Ğ  H  I  İ  J  K  L  M  N  O  Ö  P  R  S  Ş  T  U  Ü  V  Y  Z 



Foxrot Uniform Charlie Kilo tab - Bloodhound Gang



Intro&Outro
e---------------------------------------------------------------------------------|
b--------------------------------------------------------------------------------|
g--------------------------------------------------------------------------------|
d------88--6--------88-----------88--6------99--8----------------------------|
a--99-----------66-------9-----------------------------------------------------|
e------------------------------66---------99------------------------------------|

Verse
e----------------------------------------------------------------------------------|
b---------------------------------------------------------------------------------|
g---11-11---11-11----8---8----8---8-------------------------------------------|
d---11-11---11-11----8---8----8---8----8---8---8---8-----11--11---11--11--|
a---9---9-----9--9-- --6---6----6---6----8---8---8---8-----11--11---11--11--|
e------------------------------------------6---6---6---6------9---9----9---9----|

Pre-Chorus
e----------------------------------------------------------------------------------|
b----------------------------------------------------------------------------------|
g-----------------------11-11-11-11---------------------------------------------|
d--9-9-9-9-9-9-9-9---11-11-11-11---11-11-11-11----------------------------|
a--9-9-9-9-9-9-9-9----9--9--9--9----11-11-11-11-----------------------------|
e--7-7-7-7-7-7-7-7--------------------9--9--9--9-------------------------------|




Foxrot Uniform Charlie Kilo tab - Bloodhound Gang akoru
Foxrot Uniform Charlie Kilo tab - Bloodhound Gang notaları,
Foxrot Uniform Charlie Kilo tab - Bloodhound Gang tablar bas tablar akord akor oku



iletisim  Reklam  Gizlilik sözlesmesi
Diger sitelerimize baktiniz mi ? Radyo Dinle - milli piyango sonuclari - 2017 yeni yil mesajlari - Güzel sözler Sohbet 2003- 2016 Canim.net Her hakki saklidir.