Güzel sözler | Fıkra | Hikaye | Şiir - Şair| Şarkı sözleri | Türküler | Sohbet odaları | Rüya | Sağlık | Biyografi | islam | Güzeller | Paylaş


Canim.net
Akorlar
Akor Ekle
Şarkı sözleri
Yabancı şarkı sözleri
Çeviriler
Türkü
A  B  C  Ç  D  E  F  G  Ğ  H  I  İ  J  K  L  M  N  O  Ö  P  R  S  Ş  T  U  Ü  V  Y  Z 



Fortunes Of War tab - Iron Maiden



Guit 1:
E|----------------------------------------------------------------------|
B|----------------------------------------------------------------------|
G|--------9----9----9-------------12------12------12---------------|
D|-----9----9----9----9------12------12------12-----12------------|
A|--7---------------------10------------------------------------------|
E|----------------------------------------------------------------------|

E|----------------------------------------------------------------------|
B|----------------------------------------------------------------------|
G|--------7----7----7----------4---4---4-----------5----5----5-----|
D|-----7----7----7----7-----4---4---4---4------5----5----5----5--|
A|--5----------------------2-------------------3----------------------|
E|----------------------------------------------------------------------|

E|----------------------------------------------------------------------|
B|----------------------------------------------------------------------|
G|--------7----7----7----------9---9---9-----------9----9----9-----|
D|-----7----7----7----7-----9---9---9---9------9----9----9----9--|
A|--5----------------------7-------------------7----------------------|
E|----------------------------------------------------------------------|
____________&
last time play this only one time

Guit 2:
E|----------------------------------------------------------------------|
B|-5^--5-7-8-7-5-3^-----8-10-12-10-8-7^---7-8-10-8-7^----|
G|----------------------------------------------------------------------|
D|----------------------------------------------------------------------|
A|----------------------------------------------------------------------|
E|----------------------------------------------------------------------|

E|----------------------------------------------------------------------|
B|--0-0--3-5-7-5-3-7-5^---5-7-8-7-5-3^---3-5-7-8-7-5-3------|
G|----------------------------------------------------------------------|
D|----------------------------------------------------------------------|
A|----------------------------------------------------------------------|
E|----------------------------------------------------------------------|

E|----------------------------------------------------------------------|
B|----5-5-5 -7-5^---5-5-5-7-5^------------------------------------|
G|----------------------------------------------------------------------|
D|----------------------------------------------------------------------|
A|----------------------------------------------------------------------|
E|----------------------------------------------------------------------|

- After the war, and now that theyve sent us homeward....-
Play intro (guit 1) several times
Total Running Time: 00:00 - 01:44

Bass Riff: 01:45 - 01:58
02:11 - 02:23
02:37 - 02:49
07:03 - 07:15

Riff 1:

01:58 - 02:10 only Guit 1
02:24 - 02:36 both guitars
02:50 - 03:24 both guitars

Guit 1
E|----------------------------------------------------------------------|
B|----------------------------------------------------------------------|
G|--9--9-----9-9-9---9--9--11---9--9-----9-9-9---9---9--7------|
D|--9--9-----9-9-9---9--9--11---9--9-----9-9-9---9---9--7------|
A|--7--7-----7-7-7---7--7---9----7--7-----7-7-7---7---7--5------|
E|----------------------------------------------------------------------|

E|----------------------------------------------------------------------|
B|----------------------------------------------------------------------|
G|--9--9-----9-9-9---9--9--11----9--9----9----9-9---5--5--7--7-|
D|--9--9-----9-9-9---9--9--11----9--9----9----9-9---5--5--7--7-|
A|--7--7-----7-7-7---7--7---9----7--7----7----7-7----3-3-5-5---|
E|----------------------------------------------------------------------|

Guit 2 __
E|----------------------------------------------------------------------| |
B|--17-15-------------------------------------------------------------| | 3 times
G|---------16-12-10-12^--12-14-12-14-16^----------------------| __|
D|----------------------------------------------------------------------|
A|----------------------------------------------------------------------|
E|----------------------------------------------------------------------|

E|----------------------------------------------------------------------|
B|--17-15-------------------------------------------------------------|
G|---------16-12-10-12^--12-10^ ---------------------------------|
D|----------------------------------------------------------------------|
A|----------------------------------------------------------------------|
E|----------------------------------------------------------------------|
End Of Riff 1

Riff 2 ( 4x )
Running Time: 03:25 - 04:11
People say "dont worry" .....

E|----------------------------------------------------------------------|
B|----------------------------------------------------------------------|
G|---9---9-9-9---9---5--7-----9---9-9-9---4-5-2------------------|
D|---9---9-9-9---9---5--7-----9---9-9-9---4-5-2------------------|
A|---7---7-7-7---7---3--5-----7---7-7-7---2-3-0------------------|
E|----------------------------------------------------------------------|
_____2 times_____&

End Of Riff 2

Chorus
Running Time: 04:12 - 04:38
E|----------------------------------------------------------------------|
B|----------------------------------------------------------------------|
G|-----------------------------------------------5-5-5-5-5-5-5-5----|
D|-2-2-2-2-2-2-2-2----5-5-5-5-5-5-5-5----5-5-5-5-5-5-5-5----|
A|-2-2-2-2-2-2-2-2----5-5-5-5-5-5-5-5----3-3-3-3-3-3-3-3----|
E|-0-0-0-0-0-0-0-0----3-3-3-3-3-3-3-3---------------------------|

E|----------------------------------------------------------------------|
B|----------------------------------------------------------------------|
G|--7-7-7-7--5-5---7-7----------------------------------------------|
D|--7-7-7-7--5-5---7-7----2-2-2-2-2-2-2-2--5-5-5-5-5-5-5-5--|
A|--5-5-5-5--3-3---5-5----2-2-2-2-2-2-2-2--5-5-5-5-5-5-5-5--|
E|----------------------------0-0-0-0-0-0-0-0--3-3-3-3-3-3-3-3--|

E|----------------------------------------------------------------------|
B|----------------------------------------------------------------------|
G|--5-5-5-5-5-5-5-5--2-2-2-2-2-2-2-2--5-5-5-5-5-5-5-5-------|
D|--5-5-5-5-5-5-5-5--2-2-2-2-2-2-2-2--5-5-5-5-5-5-5-5-------|
A|--3-3-3-3-3-3-3-3--0-0-0-0-0-0-0-0--3-3-3-3-3-3-3-3-------|
E|----------------------------------------------------------------------|

E|----------------------------------------------------------------------|
B|----------------------------------------------------------------------|
G|---7-7-7-7-7-7-7-7------------------------------------------------|
D|---7-7-7-7-7-7-7-7------------------------------------------------|
A|---5-5-5-5-5-5-5-5------------------------------------------------|
E|----------------------------------------------------------------------|
End Of Chorus

Riff 3
Running Time: 04:39 - 05:02 ( Play 2X )
Guit 1

E|----------------------------------------------------------------------|
B|----------------------------------------------------------------------|
G|-0---0-0-4-2--2-2-4-0--0-0-4-2---2-2-4-0--0-0-4-2-4----5-4-2-0-2-0-|
D|--------------------------------------------------------------------------------4-0-2--|
A|----------------------------------------------------------------------|
E|----------------------------------------------------------------------|

E|----------------------------------------------------------------------|
B|-0---0-0-4-2--2-2-4-0--0-0-4-2---2-2-4-0--0-0-4-2-4----5-4-2-0-2-4-5-4--|
G|----------------------------------------------------------------------|
D|----------------------------------------------------------------------|
A|----------------------------------------------------------------------|
E|----------------------------------------------------------------------|

Guit 2
E|----------------------------------------------------------------------|
B|----------------------------------------------------------------------|
G|----------------------------------------------------------------------|
D|----------------------------------------------------------------------|
A|----------------------------------------------------------------------|
E|----------------------------------------------------------------------|

E|----------------------------------------------------------------------|
B|----------------------------------------------------------------------|
G|----------------------------------------------------------------------|
D|----------------------------------------------------------------------|
A|----------------------------------------------------------------------|
E|----------------------------------------------------------------------|
End Of Riff 3

Solo 1 &2

Riff 4
Running Time: 05:39 - 05:50 ( Play 1X )

Fortunes Of War, Fortunes Of War, Fortunes Of War,
No Pain Anymore...
E|----------------------------------------------------------------------|
B|----------------------------------------------------------------------|
G|-------------------5--------------5------7--------------------------|
D|----2------5------5------7------5------7---------------------------|
A|----2------5------3------7------3------5---------------------------|
E|----0------3--------------5------------------------------------------|
End Of Riff 4

Repat Riff 3 ( 05:50 - 06:13 )
OOOOOOOOhhhhhhhhhhhh!!!!!!!!!!!!!
Last time play a little more slowly

E|----------------------------------------------------------------------|
B|----------------------------------------------------------------------|
G|---5-4-2-0-2-0-----------------------------------------------------|
D|------------------4-0------------------------------------------------|
A|----------------------------------------------------------------------|
E|----------------------------------------------------------------------|

Repeat Chorus ( 06:14 - 06:43 )
Last time play

E|----------------------------------------------------------------------|
B|----------------------------------------------------------------------|
G|-------------------------------------------------5-5-5-5-5-5-5-5--|
D|-2-2-2-2-2-2-2-2-----5-5-5-5-5-5-5-5-----5-5-5-5-5-5-5-5--|
A|-2-2-2-2-2-2-2-2-----5-5-5-5-5-5-5-5-----3-3-3-3-3-3-3-3--|
E|-0-0-0-0-0-0-0-0-----3-3-3-3-3-3-3-3--------------------------|

E|----------------------------------------------------------------------|
B|----------------------------------------------------------------------|
G|---2-2-2-2-2-2-2-2----5-5-5-5-5-5-5-5-----7------------------|
D|---2-2-2-2-2-2-2-2----5-5-5-5-5-5-5-5-----7------------------|
A|---0-0-0-0-0-0-0-0----3-3-3-3-3-3-3-3-----5------------------|
E|----------------------------------------------------------------------|

Repeat Riff 1 ( 06:43 - 07:02 )
Guit 1

E|----------------------------------------------------------------------|
B|----------------------------------------------------------------------|
G|--------9----9----9-------------12------12------12---------------|
D|-----9----9----9----9------12------12------12-----12------------|
A|--7---------------------10------------------------------------------|
E|----------------------------------------------------------------------|

E|----------------------------------------------------------------------|
B|----------------------------------------------------------------------|
G|--------7----7----7----------4---4---4-----------5----5----5-----|
D|-----7----7----7----7-----4---4---4---4------5----5----5----5--|
A|--5----------------------2-------------------3----------------------|
E|----------------------------------------------------------------------|

E|----------------------------------------------------------------------|
B|----------------------------------------------------------------------|
G|--------7----7----7---------------9-----------9--------------------|
D|-----7----7----7----7---------9-----9-----9----9------------------|
A|--5--------------------------7----------7----------7----------------|
E|----------------------------------------------------------------------|&127;




Fortunes Of War tab - Iron Maiden akoru
Fortunes Of War tab - Iron Maiden notaları,
Fortunes Of War tab - Iron Maiden tablar bas tablar akord akor oku



iletisim  Reklam  Gizlilik sözlesmesi
Diger sitelerimize baktiniz mi ? Radyo Dinle - milli piyango sonuclari - 2017 yeni yil mesajlari - Güzel sözler Sohbet 2003- 2016 Canim.net Her hakki saklidir.