Güzel sözler | Fıkra | Hikaye | Şiir - Şair| Şarkı sözleri | Türküler | Sohbet odaları | Rüya | Sağlık | Biyografi | islam | Güzeller | Paylaş


Canim.net
Akorlar
Akor Ekle
Şarkı sözleri
Yabancı şarkı sözleri
Çeviriler
Türkü
A  B  C  Ç  D  E  F  G  Ğ  H  I  İ  J  K  L  M  N  O  Ö  P  R  S  Ş  T  U  Ü  V  Y  Z 



For All Our Sins tab - Kataklysm



" - tremolo
& - slide down
- slide up
. - palm mute
~ - long sound
x - rest
p - pull off
h - hammer on
tr - trill
() - ghost note, sustained note
* - artificial harmonics
b - bend


Tuning from low to high: B E A D F# B

================================

Riff 1
|-----------------------------------------|
|-----------------------------------------|
|-9"--------8"--9"----5"--------4"--5"----|
|-9"--------9"--9"----5"--------5"--5"----|gtr 1
|-7"--------7"--7"----3"--------3"--3"----|
|-----------------------------------------|
|
|-----------------------------------------|
|-----------------------------------------|
|-9"--------8"--9"----5"--------4"--5"----|
|-9"--------9"--9"----5"--------5"--5"----|gtr 2
|-7"--------7"--7"----3"--------3"--3"----|
|-----------------------------------------|

|------------------------------------------------|
|----------------------------15~----------11~--|
|-9"--------8"--9"----12"----12~----8"-----8~--|
|-9"--------9"--9"----12"------------8"----------|gtr 1
|-7"--------7"--7"----10"------------6"----------|
|------------------------------------------------|
|
|------------------------------------------------|
|----------------------------15~----------11~--|
|-9"--------8"--9"----12"----12~----8"-----8~--|
|-9"--------9"--9"----12"------------8"----------|gtr 2
|-7"--------7"--7"----10"------------6"----------|
|------------------------------------------------|



Riff 2
|---------------------------------------------------------------|
|---------------------------------------------------------------|
|---------------------------------------------------------------|
|-----5---5-------4---5-------5-------4---4-------4---4---5--4--|gtr 1
|-----7---7-------7---7-------7-------5---5-------5---5---5--5--|
|-0-0---0---0-0-0---0---0-0-0---0-7-7---7---7-7-7---7---7-------|
|
|---------------------------------------------------------------|
|---------------------------------------------------------------|
|---------------------------------------------------------------|
|-----5---5-------4---5-------5-------4---4-------4---4---5--4--|gtr 2
|-----7---7-------7---7-------7-------5---5-------5---5---5--5--|
|-0-0---0---0-0-0---0---0-0-0---0-7-7---7---7-7-7---7---7-------|

|-----------------------------------------------------------------|
|-----------------------------------------------------------------|
|-----------------------------------------------------------------|
|-----5---5-------4---5-------5-------4---4-------4---4---5-4-----|gtr 1
|-----7---7-------7---7-------7-------5---5-------5---5---.-.-7-5-|
|-0-0---0---0-0-0---0---0-0-0---0-7-7---7---7-7-7---7---7-----.-.-|
|
|-----------------------------------------------------------------|
|-----------------------------------------------------------------|
|-----------------------------------------------------------------|
|-----5---5-------4---5-------5-------4---4-------4---4---5-4-----|gtr 2
|-----7---7-------7---7-------7-------5---5-------5---5---.-.-7-5-|
|-0-0---0---0-0-0---0---0-0-0---0-7-7---7---7-7-7---7---7-----.-.-|



Riff 3
|--------------------------------------------------------|
|--------------------------------------------------------|
|-9"-------------------------------------9"--------------|
|-9"-------------------------------------9"--------------|gtr 1
|-7"-----10-9-7-5-9"--9"--12"---10-9-7-5-7"-----10-9-7-5-|
|---------.-.-.-.-7"--8"--10"----.-.-.-.---------.-.-.-.-|
|
|--------------------------------------------------------|
|--------------------------------------------------------|
|-9"-------------------------------------9"--------------|
|-9"-------------------------------------9"--------------|gtr 2
|-7"-----10-9-7-5-9"--9"--12"---10-9-7-5-7"-----10-9-7-5-|
|---------.-.-.-.-7"--8"--10"----.-.-.-.---------.-.-.-.-|

|------------------------|
|------------------------|
|------------------------|
|------------------------|gtr 1
|-9"--10"--7"---10-9-7-5-|
|-7"---8"--5"----.-.-.-.-|
|
|------------------------|
|------------------------|
|------------------------|
|------------------------|gtr 2
|-9"--10"--7"---10-9-7-5-|
|-7"---8"--5"----.-.-.-.-|



Riff 4a
|---------------------------------------------------------------|
|---------------------------------------------------------------|
|---------------------------------------------------------------|
|---------------------------------------------------------------|gtr 1
|-------5----5---------5----5---------5----5---7p0-7p0-10p0-9p0-|
|-77777-.-77-.-7-55555-.-55-.-5-33333-.-33-.-3------------------|
| .. .. ..
|---------------------------------------------------------------|
|---------------------------------------------------------------|
|---------------------------------------------------------------|
|-------5----4---------4----5---------5----5---5p0-5p0--9p0-7p0-|gtr 2
|-77777-.-77-.---55555-.-55-.-5-33333-.-55-.-3------------------|
|---------..-------------..---.---------..---.------------------|

|---------------------------------------------------------------|
|---------------------------------------------------------------|
|---------------------------------------------------------------|
|---------------------------------------------------------------|gtr 1
|-------5----5---------5----5---------5----5---7p0-7p0-10p0-9p0-|
|-77777-.-77-.-7-55555-.-55-.-5-33333-.-33-.-3------------------|
| .. .. ..
|---------------------------------------------------------------|
|---------------------------------------------------------------|
|---------------------------------------------------------------|
|-------5----4---------4----5---77777-5-50-4---5p0-5p0--9p0-7p0-|gtr 2
|-77777-.-77-.---55555-.-55-.-5-------.-..-.--------------------|
|--------.----------.-------------------------------------------|


Riff 4b
|---------------------------------------------------------------|
|---------------------------------------------------------------|
|---------------------------------------------------------------|
|-------5----5---------5----5---------5----5---7p0-7p0-10p0-9p0-|gtr 1
|-77777-.-77-.-7-55555-.-55-.-5-33333-.-33-.-3------------------|
|---------..-------------..-------------..----------------------|
|
|---------------------------------------------------------------|
|---------------------------------------------------------------|
|-------5----4---------4----5---------5----5---5p0-5p0--9p0-7p0-|
|-77777-.-77-.---55555-.-55-.-5-33333-.-55-.-3------------------|gtr 2
|---------..-------------..-------------..----------------------|
|---------------------------------------------------------------|

|---------------------------------------------------------------|
|---------------------------------------------------------------|
|---------------------------------------------------------------|
|-------5----5---------5----5---------5----5---7p0-7p0-10p0-9p0-|gtr 1
|-77777-.-77-.-7-55555-.-55-.-5-33333-.-33-.-3------------------|
|---------..-------------..-------------..----------------------|
|
|---------------------------------------------------------------|
|---------------------------------------------------------------|
|-------5----4---------4----5---77777-5-50-5---5p0-5p0--9p0-7p0-|
|-77777-.-77-.---55555-.-55-.-5-------.-..-.--------------------|gtr 2
|---------..-------------..-------------------------------------|
|---------------------------------------------------------------|


Riff 5
|---------------------------------------|
|---------------------------------------|
|---------------5"------4"------2"------|
|-2-------------7"------5"------4"------|gtr 1
|-2-------------3"------2"------0"------|
|-0-0-0-0-0-0-0-------------------------|
| . . . . . .
|---------------------------------------|
|---------------------------------------|
|---------------5"------4"------2"------|
|-2-------------7"------5"------4"------|gtr 2
|-2-------------3"------2"------0"------|
|-0-0-0-0-0-0-0-------------------------|
. . . . . .

|---------------------------------------|
|---------------------------------------|
|---------------5"------4"------7"---7"-|
|-2-------------7"------5"------9"---7"-|gtr 1
|-2-------------3"------2"------5"---5"-|
|-0-0-0-0-0-0-0-------------------------|
| . . . . . .
|---------------------------------------|
|---------------------------------------|
|---------------5"------4"------7"---7"-|
|-2-------------7"------5"------9"---7"-|gtr 2
|-2-------------3"------2"------5"---5"-|
|-0-0-0-0-0-0-0-------------------------|
. . . . . .



Riff 6
|---------------------------------------------------------------------------|
|---------------------------------------------------------------------------|
|---------------------------------------------------------------------------|
|---------------------7---7--------------------------------7---9---7--------|
|-----10---9---9h10p9---------10---9~------10---9---9h10p9-------------10~--|
|-0-0----0---0----------8---8----8-----0-0----0---0----------8---8---8------|
|gtr 1
|---------------------------------------------------------------------------|
|---------------------------------------------------------------------------|
|---------------------------------------------------------------------------|
|---------------------7---7--------------------------------7---9---7--------|
|-----10---9---9h10p9---------10---9~------10---9---9h10p9-------------10~--|
|-0-0----0---0----------8---8----8-----0-0----0---0----------8---8---8------|
gtr 2

|-------------------------------------------------------------------------|
|-------------------------------------------------------------------------|
|-------------------------------------------------------------------------|
|---------------------7---7------------------------------9---7------------|
|-----10---9---9h10p9---------10---9~------10---9---9&10---------10---9~--|
|-0-0----0---0----------8---8----8-----7-7----7---7--------7---7----7-----|
|gtr 1
|-------------------------------------------------------------------------|
|-------------------------------------------------------------------------|
|-------------------------------------------------------------------------|
|---------------------7---7------------------------------9---7------------|
|-----10---9---9h10p9---------10---9~------10---9---9&10---------10---9~--|
|-0-0----0---0----------8---8----8-----7-7----7---7--------7---7----7-----|
gtr 2


Riff 7a
|-----------------------------------------------------|
|-----------------------------------------------------|
|-----------------------------------------------------|
|-----------------------------------------------------|gtr 1
|--------------------------3--------------------6-5-3-|
|-00004p300004p300004p300001--00004p300004p300004-3-1-|
|
|-----------------------------------------------------|
|-----------------------------------------------------|
|-----------------------------------------------------|
|-----------------------------------------------------|gtr 2
|-2x-----------------------3x-------------------6-5-3-|
|-0x-----------------------1x-------------------4-3-1-|



Riff 7b
|-----------------------------------------------------|
|-----------------------------------------------------|
|-----------------------------------------------------|
|-----------------------------------------------------|gtr 1
|--------------------------3--------------------6-5-3-|
|-00004p300004p300004p300001--00004p300004p300004-3-1-|
|
|-----------------------------------------------------|
|-----------------------------------------------------|
|-----------------------------------------------------|
|-----------------------------------------------------|gtr 2
|--------------------------3--------------------6-5-3-|
|-00004p300004p300004p300001--00004p300004p300004-3-1-|



Riff 8
|-----------------------------------------------------|
|-----------------------------------------------------|
|-----------------------------------------------------|
|---------------3-------------------------5-----------|gtr 1
|-2-------------1----5----3-2-------------3----3----5-|
|-0-0-0-0-0-0-0---00-3-00-1-0-0-0-0-0-0-0---00-1-00-3-|
| . . . . . . .. .. . . . . . . . .. ..
|-----------------------------------------------------|
|-----------------------------------------------------|
|-----------------------------------------------------|
|---------------3-------------------------5-----------|gtr 2
|-2-------------1----5----3-2-------------3----3----5-|
|-0-0-0-0-0-0-0---00-3-00-1-0-0-0-0-0-0-0---00-1-00-3-|
. . . . . . .. .. . . . . . . . .. ..

|---------------------------------------------|
|---------------------------------------------|
|---------------------------------------------|
|---------------3-----------8-888888-55555555-|gtr 1
|-2-------------1----5----3-8-888888-55555555-|
|-0-0-0-0-0-0-0---00-3-00-1-6-666666-33333333-|
| . . . . . . .. ..
|---------------------------------------------|
|---------------------------------------------|
|---------------------------------------------|
|---------------3-----------8-888888-55555555-|gtr 2
|-2-------------1----5----3-8-888888-55555555-|
|-0-0-0-0-0-0-0---00-3-00-1-6-666666-33333333-|
| . . . . . . .. ..



Riff 9a
|------------------------------------------------------------------------|
|------------------------------------------------------------------------|
|------------------------------------------------------------------------|
|---9-5---9-5---9---10-7---10-7-------9-5---9-5---9---10-7-----------7~--|
|-------------------------------9-6------------------------9-6-----9-----|
|-0-----0-----0---0------0----------0-----0-----0---0----------5-8-------|
|gtr 1
|------------------------------------------------------------------------|
|------------------------------------------------------------------------|
|------------------------------------------------------------------------|
|------------------------------------------------------------------------|
|-2--------------------------------(2)------------------------(2)--------|
|-0--------------------------------(0)------------------------(0)--------|
gtr 2

|---------------------------------------------------------------------|
|---------------------------------------------------------------------|
|---------------------------------------------------------------------|
|---9-5---9-5---9---10-7---10-7-------9-5---9-5---9-7-10--------------|
|-------------------------------9-6----------------------6-9-----10-9-|
|-0-----0-----0---0------0----------0-----0-----0------------5-8------|
|gtr 1
|---------------------------------------------------------------------|
|---------------------------------------------------------------------|
|---------------------------------------------------------------------|
|---------------------------------------------------------------------|
|-2--------------------------------(2)---------------------(2)--------|
|-0--------------------------------(0)---------------------(0)--------|
gtr 2


Riff 9b
|------------------------------------------------------------------------|
|------------------------------------------------------------------------|
|------------------------------------------------------------------------|
|---9-5---9-5---9---10-7---10-7-------9-5---9-5---9---10-7-----------7~--|
|-------------------------------9-6------------------------9-6---6-9-----|
|-0-----0-----0---0------0----------0-----0-----0---0----------8---------|
|gtr 1
|------------------------------------------------------------------------|
|------------------------------------------------------------------------|
|------------------------------------------------------------------------|
|---9-5---9-5---9---10-7---10-7-------9-5---9-5---9---10-7-----------7~--|
|-------------------------------9-6------------------------9-6---6-9-----|
|-0-----0-----0---0------0----------0-----0-----0---0----------8---------|
gtr 2

|---------------------------------------------------------------------|
|---------------------------------------------------------------------|
|---------------------------------------------------------------------|
|---9-5---9-5---9---10-7---10-7-------9-5---9-5---9-7-10--------------|
|-------------------------------9-6----------------------6-9-----10-9-|
|-0-----0-----0---0------0----------0-----0-----0------------5-8------|
|gtr 1
|---------------------------------------------------------------------|
|---------------------------------------------------------------------|
|---------------------------------------------------------------------|
|---9-5---9-5---9---10-7---10-7-------9-5---9-5---9-7-10--------------|
|-------------------------------9-6----------------------6-9-----10-9-|
|-0-----0-----0---0------0----------0-----0-----0------------5-8------|
gtr 2


End with this
|-----|
|-----|
|-----|
|-----|gtr 1
|-2---|
|-0---|
|
|-----|
|-----|
|-----|
|-----|gtr 2
|-2---|
|-0---|




For All Our Sins tab - Kataklysm akoru
For All Our Sins tab - Kataklysm notaları,
For All Our Sins tab - Kataklysm tablar bas tablar akord akor oku



iletisim  Reklam  Gizlilik sözlesmesi
Diger sitelerimize baktiniz mi ? Radyo Dinle - milli piyango sonuclari - 2017 yeni yil mesajlari - Güzel sözler Sohbet 2003- 2016 Canim.net Her hakki saklidir.