Güzel sözler | Fıkra | Hikaye | Şiir - Şair| Şarkı sözleri | Türküler | Sohbet odaları | Rüya | Sağlık | Biyografi | islam | Güzeller | Paylaş


Canim.net
Akorlar
Akor Ekle
Şarkı sözleri
Yabancı şarkı sözleri
Çeviriler
Türkü
A  B  C  Ç  D  E  F  G  Ğ  H  I  İ  J  K  L  M  N  O  Ö  P  R  S  Ş  T  U  Ü  V  Y  Z 



Fine tab - Black Sabbath



----------------------------------------(8)&10~-8~-7------
-----(5)&7~-5~--7&9~-7~--4h5h7---7~-5~--------------7~~---
----------------------7-----------------------------------
-5-5--------------------------5---------------------------
----------------------------------------------------------
{Guitar with chourse)

----------------------------------------------------------
----------------------------------------(8)&10~-8~-7------
-----(5)&7~-5~--7&9~-7~--4h5h7---7~-5~--------------7~~---
----------------------7-----------------------------------
--5---------------------------5---------------------------
----------------------------------------------------------
{Guitar with chourse)

----------------------------------------------------------
----------------------------------------(8)&10~-8~-7------
-----(5)&7~-5~--7&9~-7~--4h5h7---7~-5~--------------7~~---
----------------------7-----------------------------------
--5---------------------------5---------------------------
----------------------------------------------------------
{Guitar with chourse)
Some day you will have to choose, doesn`t really matter, I`ll be fine

----------------------------------------------------------
----------------------------------------(8)&10~-8~-7------
-----(5)&7~-5~--7&9~-7~--4h5h7---7~-5~--------------7~~---
----------------------7-----------------------------------
--5---------------------------5---------------------------
----------------------------------------------------------
{Guitar with chourse)

----------------------------------------------------------
----------------------------------------(8)&10~-8~-7------
-----(5)&7~-5~--7&9~-7~--4h5h7---7~-5~--------------7~~---
----------------------7-----------------------------------
--5---------------------------5---------------------------
----------------------------------------------------------
{Guitar with chourse)
There will be this love inside me, doesn`t really matter, I`ll be fine

----------------------------------------------------------
----------------------------------------(8)&10~-8~-7------
-----(5)&7~-5~--7&9~-7~--4h5h7---7~-5~--------------7~~---
----------------------7-----------------------------------
--5---------------------------5---------------------------
----------------------------------------------------------
{Guitar with chourse)
Oh,oo
BRIDGE
---------------------------------------------------------------------
---------------------------------------------------------------------
---7---5---4---2--(0)-2-2h4 tr~~----7----5---4---2--(0)-2-2h4 tr~~---
---------------------------------------------------------------------
-5--------------------------------5----------------------------------
---------------------------------------------------------------------
{Guitar with chourse)
Living with this indecision, I will keep on belivin`, I`ll be fine.

----------------------------------------------------------
----------------------------------------(8)&10~-8~-7------
-----(5)&7~-5~--7&9~-7~--4h5h7---7~-5~--------------7~~---
----------------------7-----------------------------------
--5---------------------------5---------------------------
----------------------------------------------------------
{Guitar with chourse)

----------------------------------------------------------
----------------------------------------(8)&10~-8~-7------
-----(5)&7~-5~--7&9~-7~--4h5h7---7~-5~--------------7~~---
----------------------7-----------------------------------
--5---------------------------5---------------------------
----------------------------------------------------------
{Guitar with chourse)
I was here to let you in, I will let you go, I`ll be fine

----------------------------------------------------------
----------------------------------------(8)&10~-8~-7------
-----(5)&7~-5~--7&9~-7~--4h5h7---7~-5~--------------7~~---
----------------------7-----------------------------------
--5---------------------------5---------------------------
----------------------------------------------------------
{Guitar with chourse)
Oh, Oh, oo, oo

----------------------------------------------------------
----------------------------------------(8)&10~-8~-7------
-----(5)&7~-5~--7&9~-7~--4h5h7---7~-5~--------------7~~---
----------------------7-----------------------------------
--5---------------------------5---------------------------
----------------------------------------------------------
{Guitar with chourse)
I will tell you "Walk on in", some day you will see, that I`ll be fine

----------------------------------------------------------
----------------------------------------(8)&10~-8~-7------
-----(5)&7~-5~--7&9~-7~--4h5h7---7~-5~--------------7~~---
----------------------7-----------------------------------
--5---------------------------5---------------------------
----------------------------------------------------------
{Guitar with chourse)
Oh, yeah

BRIDGE
---------------------------------------------------------------------
---------------------------------------------------------------------
---7---5---4---2--(0)-2-2h4 tr~~----7----5---4---2--(0)-2-2h4 tr~~---
---------------------------------------------------------------------
-5--------------------------------5----------------------------------
---------------------------------------------------------------------
{Guitar with chourse)
There`s a rose in England`s Garden, to paint a perfect picture story

---------------------------------------------------------------------
---------------------------------------------------------------------
---7---5---4---2--(0)-2-2h4 tr~~----7----5---4---2--(0)-2-2h4 tr~~---
---------------------------------------------------------------------
-5--------------------------------5----------------------------------
---------------------------------------------------------------------
{Guitar with chourse)
Living in the masqurade, and try to change my life

CHOURSE
------------------------------------------------------
------------------------------------------------------
------------------------------------------------------
------------------------------------------------------
-------5---------------------------------5------------
-3---5----------------------------3---55--------------
(Chourse off)
I saw you in the paper, I got you in my head

------------------------------------------------------------------------
------------------------------------------------------------------------
----------------------------------------------------9-7---7-------------
-------------------------------------------------------9-7-9-7~~(5)----
-------5---------------------------------5------------------------------
-3---5---------------------------3-3--55--------------------------------
{slight pm}
And now I`m getting better, you know it can`t be bad

------------------------------------------------------
------------------------------------------------------
------------------------------------------------------
------------------------------------------------------
-------5---------------------------------5------------
-3---5----------------------------3---55--------------
They`re gonna make a movie, about the life I led

--------------------------------------------------------------------------
--------------------------------------------------------------------------
-------------------9-7---7------------------------------------------------
----------------------9-7-9-7~~(5)--------------------------(x)----------
---------5-----------------------------------5---------------(x)----------
-3-3---5------------------------------33---5------------------------------
{slight pm}
And I will see you later `Cause I`ve been feelin` sad, I`ll be

------------------------------15^(18~~))--15^(18s`15)-18p15p12--15^(18~~)---
--15~~~--1510&15-15~~--1510------------------------------------------------
-----------------------------------------------------------------------------
-----------------------------------------------------------------------------
-----------------------------------------------------------------------------
-----------------------------------------------------------------------------
{Guitar 1}

D D
-----------------------------------------------------------------------------
-----------------------------------------------------------------------------
-----------------------------------------------------------------------------
--7----------------------------7---------------------------------------------
--5----------------------------5---------------------------------------------
-----------------------------------------------------------------------------
{Guitar 2}
Fine Fine

-18p15p12--15^(18~~)---18p15p12--15^(188~~)-----18p15p12--15^(18~~)----------
-----------------------------------------------------------------------------
-----------------------------------------------------------------------------
-----------------------------------------------------------------------------
-----------------------------------------------------------------------------
-----------------------------------------------------------------------------
(Guitar 1) {...................Fade out.................}

D
-----------
-----------
-----------
--7--------
--5-------- {Let ring}
-----------
(Guitar 2)
Fine

----------------------------------------------------------
----------------------------------------(8)&10~-8~-7------
-----(5)&7~-5~--7&9~-7~--4h5h7---7~-5~--------------7~~---
----------------------7-----------------------------------
--5---------------------------5---------------------------
----------------------------------------------------------
{Guitar with chourse)
You don`t need to understand, you don`t even know me, I`ll be fine

----------------------------------------------------------
----------------------------------------(8)&10~-8~-7------
-----(5)&7~-5~--7&9~-7~--4h5h7---7~-5~--------------7~~---
----------------------7-----------------------------------
--5---------------------------5---------------------------
----------------------------------------------------------
{Guitar with chourse)
Ohhh

----------------------------------------------------------
----------------------------------------(8)&10~-8~-7------
-----(5)&7~-5~--7&9~-7~--4h5h7---7~-5~--------------7~~---
----------------------7-----------------------------------
--5---------------------------5---------------------------
----------------------------------------------------------
{Guitar with chourse)
So open up your simple life, the universe is waiting, I`ll be fine

----------------------------------------------------------
----------------------------------------(8)&10~-8~-7------
-----(5)&7~-5~--7&9~-7~--4h5h7---7~-5~--------------7~~---
----------------------7-----------------------------------
--5---------------------------5---------------------------
----------------------------------------------------------
{Guitar with chourse)
Ohh, yeah

BRIDGE
---------------------------------------------------------------------
---------------------------------------------------------------------
---7---5---4---2--(0)-2-2h4 tr~~----7----5---4---2--(0)-2-2h4 tr~~---
---------------------------------------------------------------------
-5--------------------------------5----------------------------------
---------------------------------------------------------------------
{Guitar with chourse)
There`s a rose in England`s Garden, to paint a perfect picture story

----------------------------------------------------------------------------------
----------------------------------------------------------------------------------
---7---5---4---2--(0)-2-2h4 tr~~----7----5---4---2--(0)-2-2h4 tr~~----------------
----------------------------------------------------------------------------------
-5--------------------------------5-----------------------------------------------
--------------------------------------------------------------------7-5-3-2-1-0---
{Guitar with chourse)
Living in the masqurade, and try to change my life

CHOURSE

------------------------------------------------------
------------------------------------------------------
------------------------------------------------------
------------------------------------------------------
-------5----------------------------------5-----------
-3---5----------------------------3-3---5-------------
(Chourse off)
I saw you in the paper, I got you in my head

------------------------------------------------------------------------
------------------------------------------------------------------------
----------------------------------------------------9-7---7-------------
-------------------------------------------------------9-7-9-7~~(5)----
------5---------------------------------5-------------------------------
-3--5---------------------------3-3--5----------------------------------
{slight pm}
And now I`m getting better, you know it can`t be bad

------------------------------------------------------
------------------------------------------------------
------------------------------------------------------
------------------------------------------------------
-------5---------------------------------5------------
-3---5----------------------------3---55--------------
(Chourse off)
They`re gonna make a movie, about the life I led

-------------------------------------------------------------------------
-------------------------------------------------------------------------
---------------------------9-7---7---------------------------------------
------------------------------9-7-9-7~~~(5)-----------------------------
---------5--------------------------------------------5------------------
--3-3--5----------------------------------------3---5--------------------
{slight pm}
And I will see you later `Cause I`ve been feelin` sad, I`ll be

BRIDGE
---------------------------------------------------------------------
---------------------------------------------------------------------
---7---5---4---2--(0)-2-2h4 tr~~----7----5---4---2--(0)-2-2h4 tr~~---
---------------------------------------------------------------------
-5--------------------------------5----------------------------------
---------------------------------------------------------------------
{Guitar with chourse)
Fine Fine

---------------------------------------------------------------------
---------------------------------------------------------------------
---7---5---3---2--(0)-2-2h4 tr~~----7----5---4---2--(0)-2-2h4 tr~~---
---------------------------------------------------------------------
-5--------------------------------5----------------------------------
---------------------------------------------------------------------
{Guitar with chourse)
Fine Fine
It`s you that completes me I hope you won`t leave me

---------------------------------------------------------------------
---------------------------------------------------------------------
---7---5---4---2--(0)-2-2h4 tr~~----7----5---4---2--(0)-2-2h4 tr~~---
---------------------------------------------------------------------
-5--------------------------------5----------------------------------
---------------------------------------------------------------------
{Guitar with chourse)
Fine Fine
Hey, eee,eeeeeeee

---------------------------------------------------------------------
---------------------------------------------------------------------
---7---5---4---2--(0)-2-2h4 tr~~----7----5---4---2--(0)-2-2h4 tr~~---
---------------------------------------------------------------------
-5--------------------------------5----------------------------------
---------------------------------------------------------------------
{Guitar with chourse)
Fine Fine
I will be fine!

---------------------------------------------------------------------
---------------------------------------------------------------------
---7---5---4---2--(0)-2-2h4 tr~~----7----5---4---2--(0)-2-2h4 tr~~---
---------------------------------------------------------------------
-5--------------------------------5----------------------------------
---------------------------------------------------------------------
{Guitar with chourse)
Fine Fine
Hey, hey, hey I don`t blame you for leavin`

---------------------------------------------------------------------
---------------------------------------------------------------------
---7---5---4---2--(0)-2-2h4 tr~~----7----5---4---2--(0)-2-2h4 tr~~---
---------------------------------------------------------------------
-5--------------------------------5----------------------------------
---------------------------------------------------------------------
{Guitar with chourse)
Fine Fine
Ohhh, ohh Hey, hey!

---------------------------------------------------------------------
---------------------------------------------------------------------
---7---5---4---2--(0)-2-2h4 tr~~----7----5---4---2--(0)-2-2h4 tr~~---
---------------------------------------------------------------------
-5--------------------------------5----------------------------------
---------------------------------------------------------------------
{Guitar with chourse)
Fine Fine
I hope you look inside yourself Inside!


Drums solo


---------------------------------------------------------------
---------------------------------------------------------------
---------------------------------------------------------------
---------------------------------------------------------------
------------------5------------------------------------5-------
-7-5-3-2-1-0--3-5-------------------------------3-3--5---------
(Chourse off)
I saw you in the paper, I got you in my head

------------------------------------------------------------------------
------------------------------------------------------------------------
----------------------------------------------------9-7---7-------------
-------------------------------------------------------9-7-9-7~~(5)----
------5---------------------------------5-------------------------------
-3--5---------------------------3-3--5----------------------------------
{slight pm}
And now I`m getting better, you know it can`t be bad

------------------------------------------------------------------------
------------------------------------------------------------------------
----------------------------------------------------9-7---7-------------
-------------------------------------------------------9-7-9-7~~(5)----
------5---------------------------------5-------------------------------
-3--5---------------------------3---5-----------------------------------
{slight pm}
They`re gonna make a movie, about the life I led

------------------------------------------------------------------------
------------------------------------------------------------------------
----------------------------------------------------9-7---7-------------
-------------------------------------------------------9-7-9-7~~(5)----
------5---------------------------------5-------------------------------
-3--5---------------------------3-3--5----------------------------------
{slight pm}
And I will see you later `Cause I`ve been feelin` sad, I`ll be

-------------------------------------------------------
-------------------------------------------------------
-------------------------------------------------------
-------------------------------------------------------
--------5-----------------------------------5----------
---3--5------------------------------3----5------------
I saw you in the paper, I got you in my head

------------------------------------------------------------------------
------------------------------------------------------------------------
----------------------------------------------------9-7---7-------------
-------------------------------------------------------9-7-9-7~~(5)----
--------5-------------------------------5-------------------------------
-3-3--5---------------------------3--5----------------------------------
{slight pm}
And now I`m getting better, you know it can`t be bad

--------------------------------------------------------
--------------------------------------------------------
--------------------------------------------------------
--------------------------------------------------------
--------5------------------------------------5----------
---3--5------------------------------3--3--5------------
They`re gonna make a movie, about the life I led

------------------------------------------------------
------------------------------------------------------
------------------------------------------------------
------------------------------------------------------
-------5---------------------------------5------------
-3---5----------------------------3---55--------------
And I will see you later `Cause I`ve been feelin` sad, I`ll be
{Begin Coda}

------------------------------------------------------
------------------------------------------------------
------------------------------------------------------
------------------------------------------------------
-------5---------------------------------5------------
-3---5----------------------------3---55--------------
I saw you in the paper, I got you in my head




Fine tab - Black Sabbath akoru
Fine tab - Black Sabbath notaları,
Fine tab - Black Sabbath tablar bas tablar akord akor oku



iletisim  Reklam  Gizlilik sözlesmesi
Diger sitelerimize baktiniz mi ? Radyo Dinle - milli piyango sonuclari - 2017 yeni yil mesajlari - Güzel sözler Sohbet 2003- 2016 Canim.net Her hakki saklidir.