Güzel sözler | Fıkra | Hikaye | Şiir - Şair| Şarkı sözleri | Türküler | Sohbet odaları | Rüya | Sağlık | Biyografi | islam | Güzeller | Paylaş


Canim.net
Akorlar
Akor Ekle
Şarkı sözleri
Yabancı şarkı sözleri
Çeviriler
Türkü
A  B  C  Ç  D  E  F  G  Ğ  H  I  İ  J  K  L  M  N  O  Ö  P  R  S  Ş  T  U  Ü  V  Y  Z 



Feast Of Burdentab - Dark Tranquillity



Riff A
|--------------------------------------------------------------------|
|--------------------------------------------------------------------|
|--------------------------------------------------------------------|Gtr
|-----5-----4-------5-----4-----------5-----4-------5-----4---4-5----| I
|-3-3 --3-3---3-3-3---3-3---3-3-3-2-2---2-2---2-2-2---2-2---2--------|
|--------------------------------------------------------------------|
| . . . . . . . . . . . . . . . . . . . . . . |
|--------------------------------------------------------------------|
|--------------------------------------------------------------------|
|-5-------------------------------4-----------------------2---2-4----|Gtr
|-5-------------------------------4----------------------------------| II
|-3-------------------------------2-------------------2-2---2--------|
|--------------------------------------------------------------------|
. . .


|--------------------------------------------------------------------|
|--------------------------------------------------------------------|
|--------------------------------------------------------------------|Gtr
|-----5-----4-------5-----4-----------7-----5-------4-----5---5h7----| I
|-3-3---3-3---3-3-3---3-3---3-3-3-5-5---5-5---5-5-5---5-5---5--------|
|--------------------------------------------------------------------|
| . . . . . . . . . . . . . . . . . . . . . . |
|--------------------------------------------------------------------|
|--------------------------------------------------------------------|
|-5--------------------------------7---------------------------------|Gtr
|-5--------------------------------7---------------------------------| II
|-3--------------------------------5---------------------------------|
|--------------------------------------------------------------------|



Riff B
|--------------------------------------------------------------------|
|--------------------------------------------------------------------|
|--------------------------------------------------------------------|Gtr
|-----9---10-------9---10---9---10-------9---10-------10---9---7---9-|I+II
|-7-7---7----7-7-7---7----7---7----7-7-7---7----7-7-7----7---7---7---|
|--------------------------------------------------------------------|
. . . . . . . . . . . . . . . . . . .


|--------------------------------------------------------------------|
|--------------------------------------------------------------------|
|-----7------7------7------7-----------------------------------------|Gtr
|-----7------7------7------7-----------------------------------------|I+II
|-5-5-5--5-5-5--5-5-5--5-5-5-----------------------------------------|
|--------------------------------------------------------------------|
. . . . . . . .



Bridge
|--------------------------------------------------------------------|
|--------------------------------------------------------------------|
|--------------------------------------------------------------------|Gtr
|-2-2----2-2----2-2--------------------------------------------------|I+II
|-2-2----2-2----2-2--------------------------------------------------|
|-0-0----0-0----0-0--------------------------------------------------|

Riff C
|--------------------------------------------------------------------|
|-------------------0---0h1---0---0---1---0h1---1---1-0--------------|
|---------------------------2-----------------2---------2------------|Gtr
|---------------------2---------2---2---2---------2------------------|I
|--------------------------------------------------------------------|
|--------------------------------------------------------------------|
|
|--------------------------------------------------------------------|
|--------------------------------------------------------------------|
|-----------5-5-7-7-9-9-9-9-9-9-9--9-9-9-5-5-5-5-5-5-5--5-5-5--------|Gtr
|-7-7-------5-5-7-7-9-9-9-9-9-9-9--9-9-9-5-5-5-5-5-5-5--5-5-5--------|II (first time)
|-7-7-------3-3-5-5-7-7-7-7-7-7-7--7-7-7-3-3-3-3-3-3-3--3-3-3--------|
|-5-5-5-5-5----------------------------------------------------------|
. . .


|--------------------------------------------------------------------|
|-0---0h1---0---0---1---0h1---1---3-3-1------------------------------|
|---------2-----------------2----------------------------------------|Gtr
|---2---------2---2---2---------2------------------------------------|I
|--------------------------------------------------------------------|
|--------------------------------------------------------------------|
|
|--------------------------------------------------------------------|
|--------------------------------------------------------------------|
|--------------------------------5-5-7-7-----------------------------|Gtr
|-5-5-5-5-5-5-5--5-5-5-7-7-------5-5-7-7-----------------------------|II
|-5-5-5-5-5-5-5--5-5-5-7-7-------3-3-5-5-----------------------------|
|-3-3-3-3-3-3-3--3-3-3-5-5-5-5-5-------------------------------------|
. . .



Riff C` (Gtr I plays the same as above)
|--------------------------------------------------------------------|
|--------------------------------------------------------------------|
|-9-9---------9-9--------5-5---------5-5-----------------------------|Gtr
|-9-9---------9-9--------5-5---------5-5-----------------------------|II (second time)
|-7-7--7-7-7--7-7--7-7-7-3-3--3-3-3--3-3--3-3-3----------------------|
|--------------------------------------------------------------------|
. . . . . . . . . . . .


|--------------------------------------------------------------------|
|--------------------------------------------------------------------|
|----------------------------------5-5-7-7---------------------------|Gtr
|-5-5---------5-5--------7-7-------5-5-7-7---------------------------|II (second time)
|-5-5---------5-5--------7-7-------3-3-5-5---------------------------|
|-3-3--3-3-3--3-3--3-3-3-5-5-5-5-5-----------------------------------|
. . . . . . . . .



Bridge
|--------------------------------------------------------------------|
|--------------------------------------------------------------------|
|-9-9----5-7---------------------------------------------------------|
|-9-9----5-7---------------------------------------------------------|
|-7-7----3-5---------------------------------------------------------|
|--------------------------------------------------------------------|

Riff D (after short keyboard&bass&drums intro)
|--------------------------------------------------------------------|
|--------------------------------------------------------------------|
|-9-9-9-9-9------7-7-7-------------9-9-9-9-9------7-7-7--------------|Gtr
|-9-9-9-9-9------7-7-7--------4h5--9-9-9-9-9------7-7-7--------4h5---|I+II
|-7-7-7-7-7------5-5-5----5h7------7-7-7-7-7------5-5-5----5h7-------|
|--------------------------------------------------------------------|

Gtr I plays only first time
then changes to riff D` while
Gtr II playing riff D
|--------------------------------------------------------------------|
|--------------------------------------------------------------------|
|--------------------------------------------------------------------|Gtr
|-7-7-7-7-7-7-7-7-5-5-5-5-5-5---------7-7-7-7-7-7-7-7-5-5-5-5-5-5----|I+II
|-7-7-7-7-7-7-7-7-5-5-5-5-5-5-----2h3-7-7-7-7-7-7-7-7-5-5-5-5-5-5----|
|-5-5-5-5-5-5-5-5-3-3-3-3-3-3-3h5-----5-5-5-5-5-5-5-5-3-3-3-3-3-3----|


|--------------------------------------------------------------------|
|--------------------------------------------------------------------|
|--------------------------------------------------------------------|Gtr
|--------------------------------------------------------------------|I+II
|-----2h3------------------------------------------------------------|
|-3h5----------------------------------------------------------------|

Riff D`
|--------------------------------------------------------------------|
|--------------------------------------------------------------------|
|--------------------------------------------------------------------|Gtr
|-------9---7---9---4---5---7---5-------9---7---9---4---5---7---5----|I
|-7-7-7---7---7---5---5---5---5---7-7-7---7---7---5---5---5---5------|
|--------------------------------------------------------------------|




Feast Of Burdentab - Dark Tranquillity akoru
Feast Of Burdentab - Dark Tranquillity notaları,
Feast Of Burdentab - Dark Tranquillity tablar bas tablar akord akor oku



iletisim  Reklam  Gizlilik sözlesmesi
Diger sitelerimize baktiniz mi ? Radyo Dinle - milli piyango sonuclari - 2017 yeni yil mesajlari - Güzel sözler Sohbet 2003- 2016 Canim.net Her hakki saklidir.