Güzel sözler | Fıkra | Hikaye | Şiir - Şair| Şarkı sözleri | Türküler | Sohbet odaları | Rüya | Sağlık | Biyografi | islam | Güzeller | Paylaş


Canim.net
Akorlar
Akor Ekle
Şarkı sözleri
Yabancı şarkı sözleri
Çeviriler
Türkü
A  B  C  Ç  D  E  F  G  Ğ  H  I  İ  J  K  L  M  N  O  Ö  P  R  S  Ş  T  U  Ü  V  Y  Z 



Fade To Black - Metallica



Acustic Intro :
e |----------------|---------------|---------------|---------------|
B |----------------|---------------|---------------|---------------|
G |-----0----------|----0----------|----0----------|----2----------|
D |---4---4---4---4|--4---4---4---4|--4---4---4---4|--2---2---2---2|
A |-2-------2---5--|0-------0---5--|2-------2---5--|4-------4---0--|
E |----------------|---------------|---------------|---------------|


Repeat 5 times


pre-verse melody : Am C G
Em : 4x


1st verse :

Am C G Em

Life it seems will fade ......

Am C G Em

Getting lost within myself........

Am C G Em

I have lost the will to live.....

Am C G

There is nothing more .........

E

__me free A C A D5 E5


C5 A C G#5 F#5 E


A C A D5 E5


C5 A C G#5 F#5 E



pre-verse melody : Am C G
Em : 4x


2d verse :

Am C G Em

Things not what they used to be,........

Am C G Em

Deathly lost, this cant be real...........

Am C G Em

Emptiness is filling me....

Am C G

Growing darkness taking dawn..............

E A C

__hes gone____________


A D5 E5

C5 A C G#5 F#5 E

A C A D5 E5

C5 A C G#5 F#5 E


pre-verse melody :



D5 E5 D5 E5 G5 F#5 D5

G |-------------------------------------4|
D |--9--9--9--7--7--7--5--5--5--4--4--4--|

D5 E5 D5 E5 G5 F#5 D5

G |-------------------------------------4|
D |--9--9--9--7--7--7--5--5--5--4--4--4--|



3rd verse :

D5 E5 D5 E5 G5 F#5 D5

No one but me .........

D5 E5 D5 E5 G5 F#5 D5

Now I cant think..............


D5 E5 D5 E5 G5 F#5 D5


D5 E5 D5 E5 G5 F#5 D5


D5 E5 D5 E5 G5 F#5 D5

Yesterday seems .......................

D5 E5 D5 E5 G5 F#5 D5

Death greats me warm, .............

rythm mode: tttt-r tttt-t- t-r -t-t-

D5-E5 D5-E5- G5-F#5 -D5-

G |-------------------------------------4|
D |--9--9--9--7--7--7--5--5--5--4--4--4--|


mode: tttt-r tttt-t- -r tttr-t- -t-t-
D5-E5 D5-E5- -G5-F#5- -D5-

G |-------------------------------------4|
D |--9--9--9--7--7--7--5--5--5--4--4--4--|


By Me :

BARE` !!!

D |---4-5-4-2-0-0--|---4-5---------|---4-5-4-2-----|---4-5-4-2-----|
A |-2--------------|-2-------------|-2-------------|-2-------------| CONTINUE,
REPAT FEW TIMES !



N.C. (no chord) D5 E5 D5 E5 G5 F#5


D5 N.C.


N.C. E5 N.C. G5 F#5 N.C. D


A5 G5 A5 B5


G5 B5 A5 B5


A5 G5 A5 A5


B5 A5 G5


Note* : always when you see an : D5 E5 D5 E5 G5 F#5

there must be an :

G |-------------------------------------4|
D |--9--9--9--7--7--7--5--5--5--4--4--4--|

Kolay Gelsin :)





Fade To Black - Metallica akoru
Fade To Black - Metallica notaları,
Fade To Black - Metallica tablar bas tablar akord akor oku



iletisim  Reklam  Gizlilik sözlesmesi
Diger sitelerimize baktiniz mi ? Radyo Dinle - milli piyango sonuclari - 2017 yeni yil mesajlari - Güzel sözler Sohbet 2003- 2016 Canim.net Her hakki saklidir.