Güzel sözler | Fıkra | Hikaye | Şiir - Şair| Şarkı sözleri | Türküler | Sohbet odaları | Rüya | Sağlık | Biyografi | islam | Güzeller | Paylaş


Canim.net
Akorlar
Akor Ekle
Şarkı sözleri
Yabancı şarkı sözleri
Çeviriler
Türkü
A  B  C  Ç  D  E  F  G  Ğ  H  I  İ  J  K  L  M  N  O  Ö  P  R  S  Ş  T  U  Ü  V  Y  Z 



Fabric - Dark Tranquillity



Riff A
|--------------------------------------------------------------------|
|--------------------------------------------------------------------|
|--------------------------------------------------------------------|Gtr
|--------------------------------------------------------------------| I
|-7-8-7~----3-&8~--------0----7-8-7~----3-&8-----------------------|
|--------------------------------------------------------------------|
| ** |
|--------------------------------------------------------------------|
|--------------------------------------------------------------------|
|--------------------------------------------------------------------|Gtr
|---------------------------------------------3----------------------| II
|----------------------------------fading in--3----------------------|
|---------------------------------------------1----------------------|



** Fill in (Gtr III)
|-------------------|
|-------------------|
|---0-2-&5-7-&10-9~-|
|-3-----------------|
|-------------------|
|-------------------|



Riff B
|--------------------------------------------------------------------|
|--------------------------------------------------------------------|
|--------------------------------------------------------------------|Gtr
|-----10-----10-----10-----10---12-10h12p10---------10------10-------| I
|-7-8----7-8----7-8----7-8----7-------------10-8-10----8-10----------|
|--------------------------------------------------------------------|
| |
|--------------------------------------------------------------------|
|--------------------------------------------------------------------|
|--------------------------------------------------------------------|Gtr
|-7----7----7----7----7----7----7----7--5--3----3--------------------| II
|-7----7----7----7----7----7----7----7--5--3----3--------------------|
|-5----5----5----5----5----5----5----5--3--1----1--------------------|


|--------------------------------------------------------------------|
|--------------------------------------------------------------------|
|--------------------------------------------------------------------|Gtr
|------10------10------10--------------------------------------------|I
|-8-10----8-10----8-10----10-----------------------------------------|
|--------------------------------------------------------------------|
| ** |
|--------------------------------------------------------------------|
|--------------------------------------------------------------------|
|--------------------------------------------------------------------|Gtr
|-3----3----3----3----3----3--5--7-----------------------------------|II
|-3----3----3----3----3----3--5--7-----------------------------------|
|-1----1----1----1----1----1--3--5-----------------------------------|



Bridge
|--------------------------------------------------------------------|
|--------------------------------------------------------------------|
|-2-2-2-4-4-4-4-4-4-4-4-7-7-7-7-7-2-2-2-4-4-4-4-4-4-4-4-5-5----------|Gtr I
|--------------------------------------------------------------------|
|-3-3-3-5-5-5-5-5-5-5-5-8-8-8-8-8-3-3-3-5-5-5-5-5-5-5-5-7-7----------|
|--------------------------------------------------------------------|
| |
|--------------------------------------------------------------------|
|--------------------------------------------------------------------|
|-2--2---------------------------------------------------------------|Gtr
|-2--2---------------------------------------------------------------|II
|-0--0---------------------------------------------------------------|
|--------------------------------------------------------------------|



Riff C
|--------------------------------------------------------------------|
|--------------------------------------------------------------------|
|-2-2-2-4-4-4-4-4-4-4-4-5-5-5-5-5-2-2-2-4-4-4-4-4-4-4-4-5-5-5-5-5----|Gtr
|--------------------------------------------------------------------|I
|-3-3-3-5-5-5-5-5-5-5-5-7-7-7-7-7-3-3-3-5-5-5-5-5-5-5-5-7-7-7-7-7----|
|--------------------------------------------------------------------|
| |
|--------------------------------------------------------------------|
|--------------------------------------------------------------------|
|-2-2-2-2-2-2-2-2-2-2-2-2-2-2-2-2------------------------------------|Gtr
|-2-2-2-2-2-2-2-2-2-2-2-2-2-2-2-2-3-3-3-3-3-3-3-3-3-3-3-3-3-3-3-3----|II
|-0-0-0-0-0-0-0-0-0-0-0-0-0-0-0-0-3-3-3-3-3-3-3-3-3-3-3-3-3-3-3-3----|
|---------------------------------1-1-1-1-1-1-1-1-1-1-1-1-1-1-1-1----|


|--------------------------------------------------------------------|
|--------------------------------------------------------------------|
|-5-5-5-7-7-7-7-7-7-7-7--9--9--9--9--9-------------------------------|Gtr
|--------------------------------------------------------------------|I
|-7-7-7-8-8-8-8-8-8-8-8-10-10-10-10-10-------------------------------|
|--------------------------------------------------------------------|
| |
|--------------------------------------------------------------------|
|--------------------------------------------------------------------|
|-5-5-5-5-5-5-5-5-5-5-5--5--5--5--5--5-------------------------------|Gtr
|-5-5-5-5-5-5-5-5-5-5-5--5--5--5--5--5-------------------------------|II
|-3-3-3-3-3-3-3-3-3-3-3--3--3--3--3--3-------------------------------|
|--------------------------------------------------------------------|


|--------------------------------------------------------------------|
|--------------------------------------------------------------------|
|-4-----5-----7---5-----4-----5--------------------------------------|Gtr
|--------------------------------------------------------------------|I
|-55555577777788887777775555557777-----------------------------------|
|--------------------------------------------------------------------|
| ..... ..... ... ..... ..... ... |
|--------------------------------------------------------------------|
|--------------------------------------------------------------------|
|--------------------------------------------------------------------|Gtr
|-5-----5-----5---5-----5-----5--------------------------------------|II
|-5-----5-----5---5-----5-----5--------------------------------------|
|-33333333333333333333333333333333-----------------------------------|
..... ..... ... ..... ..... ...


Ending
|---|
|---|
|---|Gtr
|-3-|I+II
|-3-|
|-1-|




Bridge after keyboard part
|--------|
|--------|
|-5----4-|Gtr
|-5----5-|I+II
|-3----2-|
|------3-|




Fabric - Dark Tranquillity akoru
Fabric - Dark Tranquillity notaları,
Fabric - Dark Tranquillity tablar bas tablar akord akor oku



iletisim  Reklam  Gizlilik sözlesmesi
Diger sitelerimize baktiniz mi ? Radyo Dinle - milli piyango sonuclari - 2017 yeni yil mesajlari - Güzel sözler Sohbet 2003- 2016 Canim.net Her hakki saklidir.