Güzel sözler | Fıkra | Hikaye | Şiir - Şair| Şarkı sözleri | Türküler | Sohbet odaları | Rüya | Sağlık | Biyografi | islam | Güzeller | Paylaş


Canim.net
Akorlar
Akor Ekle
Şarkı sözleri
Yabancı şarkı sözleri
Çeviriler
Türkü
A  B  C  Ç  D  E  F  G  Ğ  H  I  İ  J  K  L  M  N  O  Ö  P  R  S  Ş  T  U  Ü  V  Y  Z 



Çöpçüler Tab - Erkin Koray



e ----7---8-7--------
B -10--10-----10--8~-
G -------------------
D -------------------
A -------------------
E -------------------
Dün gece çok aradım

e ----------7------------
B -8--10--8---10--8------
G -------------------10~-
D -----------------------
A -----------------------
E -----------------------
Aradım bulamadım

e -------------------------------
B -------8--10--8------------8---
G -9--10-----------10--9--10-----
D -------------------------------
A -------------------------------
E -------------------------------
Körolası çöpçüle-- eeer


e -------------------------------
B -------8--10--8----------------
G -9--10-----------10--9---------
D -------------------------------
A -------------------------------
E -------------------------------
Aşkımı süpürmüşler


~ : titreme




Çöpçüler Tab - Erkin Koray akoru
Çöpçüler Tab - Erkin Koray notaları,
Çöpçüler Tab - Erkin Koray tablar bas tablar akord akor oku



iletisim  Reklam  Gizlilik sözlesmesi
Diger sitelerimize baktiniz mi ? Radyo Dinle - milli piyango sonuclari - 2017 yeni yil mesajlari - Güzel sözler Sohbet 2003- 2016 Canim.net Her hakki saklidir.