Güzel sözler | Fıkra | Hikaye | Şiir - Şair| Şarkı sözleri | Türküler | Sohbet odaları | Rüya | Sağlık | Biyografi | islam | Güzeller | Paylaş


Canim.net
Akorlar
Akor Ekle
Şarkı sözleri
Yabancı şarkı sözleri
Çeviriler
Türkü
A  B  C  Ç  D  E  F  G  Ğ  H  I  İ  J  K  L  M  N  O  Ö  P  R  S  Ş  T  U  Ü  V  Y  Z 



Çok Yalnızım - Dejavu



--------------------------------------------------------------------------------------
--------------------------------------------------------------------------------------
--------------------------------------------------------------------------------------
----------x---2-2--x--33-0-333--------x---2-2--x---33--888--------------------
----------x---0-0--x--11-0-101--------x---0-0--x---11--666--------------------
---0--0--x---------x--------------0--0--x---------x--------------------------------

distortion:

--------------------------------------------------------------------------------------
--------------------------------------------------------------------------------------
--------------------------------------------------------------------------------------
--------x---7-7--8-8--x--8-8--------x--7-7--8-8--x--8-8-------------------------
--------x---7-7--8-8--x--6-6--------x--7-7--8-8--x--6-6--------------------------
---0-0-x---7-7--8-8--x---------0-0-x--7-7--8-8--x--------------------------------


bağlama:

--------------------------------------------------------------------------------------
--------------------------------------------------------------------------------------
---7-7-7-7-7-7---------------------8-8-8------------------------------------------
------------------7-7-7-8-8-8-8-8--------------------------------------------------
--------------------------------------------------------------------------------------
-------------------------------------------------------------------------------------

---7-7---2-2--3-3---8--8----------------------------------------------------------------------
---7-7---2-2--3-3---8--8----------------------------------------------------------------------
---8-8---3-3--4-4---9--9---------------------------------------------------------------------
---9-9---4-4--5-5--10-10-----------------------------------------------------------------------
---9-9---4-4--5-5--10-10-----------------------------------------------------------------------
---7-7---2-2--3-3---8--8------------------------------------------------------------------------

çekip gitmene izin veremem....

distortion:

--------------------------------------------------------------------------------------
--------------------------------------------------------------------------------------
--------------------------------------------------------------------------------------
--------x---7-7--8-8--x--8-8--------x--7-7--8-8--x--8-8-------------------------
--------x---7-7--8-8--x--6-6--------x--7-7--8-8--x--6-6--------------------------
---0-0-x---7-7--8-8--x---------0-0-x--7-7--8-8--x--------------------------------


gecelerce hep seni düşündüm sensizliğe inan üzüldüm..


bağlama :

------------------------------------------------------------------------------------------
-------4&5-5-5-5--4&5-5-5-5--4&5-5-5-5----------------------------------------------
------------------------------------------------------------------------------------------
------------------------------------------------------------------------------------------
------------------------------------------------------------------------------------------
------------------------------------------------------------------------------------------


bu acı beni öldürüyorr...


distortion:

------------------------------------------------------------------------------------------
------------------------------------------------------------------------------------------
------------------------------------------------------------------------------------------
----7-7-7-7-7-----7-7-7-7-7---7-7-7-7-7--------------------------------------------
----7-7-7-7-7-----7-7-7-7-7---7-7-7-7-7--------------------------------------------
----7-7-7-7-7-----7-7-7-7-7---7-7-7-7-7--------------------------------------------

bağlama:

------------------------------------------------------------------------------------------
----6-6-6-4-4-4-44-3--6-6-6-4-4-4-44-3--------------------------------------------
------------------------------------------------------------------------------------------
------------------------------------------------------------------------------------------
------------------------------------------------------------------------------------------
------------------------------------------------------------------------------------------

bu acı beni öldürüyor....

distortion:

------------------------------------------------------------------------------------------
------------------------------------------------------------------------------------------
------------------------------------------------------------------------------------------
----7-7-7-7-7-----7-7-7-7-7---7-7-7-7-7--------------------------------------------
----7-7-7-7-7-----7-7-7-7-7---7-7-7-7-7--------------------------------------------
----7-7-7-7-7-----7-7-7-7-7---7-7-7-7-7--------------------------------------------

bu kader bana niye hiç gülmez bu kader bana niye gülmez

------------------------------------------------------------------------------------------
------------------------------------------------------------------------------------------
------------------------------------------------------------------------------------------
----7-7-7-7-7-----7-7-7-7-7---7-7-7-7-7--------------------------------------------
----7-7-7-7-7-----7-7-7-7-7---7-7-7-7-7--------------------------------------------
----7-7-7-7-7-----7-7-7-7-7---7-7-7-7-7--------------------------------------------

kaaderrr bana niye hiç gülmüyorr...




Çok Yalnızım - Dejavu akoru
Çok Yalnızım - Dejavu notaları,
Çok Yalnızım - Dejavu tablar bas tablar akord akor oku



iletisim  Reklam  Gizlilik sözlesmesi
Diger sitelerimize baktiniz mi ? Radyo Dinle - milli piyango sonuclari - 2017 yeni yil mesajlari - Güzel sözler Sohbet 2003- 2016 Canim.net Her hakki saklidir.