Güzel sözler | Fıkra | Hikaye | Şiir - Şair| Şarkı sözleri | Türküler | Sohbet odaları | Rüya | Sağlık | Biyografi | islam | Güzeller | Paylaş


Canim.net
Akorlar
Akor Ekle
Şarkı sözleri
Yabancı şarkı sözleri
Çeviriler
Türkü
A  B  C  Ç  D  E  F  G  Ğ  H  I  İ  J  K  L  M  N  O  Ö  P  R  S  Ş  T  U  Ü  V  Y  Z 



Çatal Yürektab - Athena



E
E||-0-1-4-5-5-7-7---7-7-7-7-8-10-8-7-5-1-0-12--|
B||-0------------------------------------------|
G||-1------------------------------------------|
D||-2------------------------------------------|
A||-2------------------------------------------|
E||-0-------------0----------------------0-----|

E||-7-8-10-8-7-5-4-----4-5-7-5-5-5---5---5-----|
B||----------------6-5-------------------------|
G||------------------------------------5-------|
D||--------------------------------3-----------|
A||--------------------------------------------|
E||--------------------------------------------|
B E
E||-5-5-4-1-0--2----------------0--------------|
B||------------4-4-5-6^^^^-5----0--------------|
G||------------4----------------1--------------|
D||------------4----------------2--------------|
A||------------2----------------2--------------|
E||------------2----------------0--------------|
Hareketli kısım
E&Dm&E E&Dm&E Dm&Am&F&E
E||---------------------------------------------------|
B||---------------------------------------------------|
G||-4-5-4-4-5-4-------------4-5-4-4-5-4-----------5---|
D||-------------7-7-6-6-3-2-------------7-7-6-6-7-----|
A||---------------------------------------------------|
E||---------------------------------------------------|
F F
E||------------------1-1------------------------------|
B||-3-3-5------------1-1------------------------------|
G||-------5-4-5-4-2--2-2-2-1-2-1-2-1-2-4--------------|
D||------------------3-3------------------------------|
A||------------------3-3------------------------------|
E||------------------1-1------------------------------|

E||---------------------------------------------------|
B||---------------------------------------------------|
G||-4-5-4-4-5-4-------------4-5-4-4-5-4-----------5---|
D||-------------7-7-6-6-3-2-------------7-7-6-6-7-----|
A||---------------------------------------------------|
E||---------------------------------------------------|
F F E
E||------------------1-1-----------0------------------|
B||-3-3-5------------1-1-----------0------------------|
G||-------5-4-5-4-2--2-2-2-1-2-1-2-1------------------|
D||------------------3-3-----------2------------------|
A||------------------3-3-----------2------------------|
E||------------------1-1-----------0------------------|

E Dm E
Buradayım her şeyin ortasında
E Dm E
Hani dere tepe akar gider ya
E Dm E
Boyun eğmez çatal yürek
E Dm E
Bekler durur yol ayrımında
E F E
Sağdan mı gitmeli
E F E
Soldan mı gitmeli
E F E
Uymadı ortadan gel
E F E
Yaman yaman yol bizimkisi

Am Am F
Aaaaaaahhhh.. Görmeden olmuyor
F Am F
Tadını bilmiyor,Sen benim olmasan da
F Dm F
İçimdeki susmuyor,Damarına basmadıkça
E
Kendini bulmuyor Aman aman
Dm E Dm&E
Kendini bulmuyor Aman aman

hareketli kısım tekrar
E&Dm&E E&Dm&E Dm&Am&F&E
Kalabalık Bir gün fezaya
Belki yarın dalarım okyanusa
Kim bilir bu çatal yürek
Neler ister yol ayrımında
E F E
Sağdan mı gitmeli
E F E
Soldan mı gitmeli
E F E
Uymadı ortadan gel
E F E
Yaman yaman yol bizimkisi

Am Am F
Aaaaaaahhhh.. Görmeden olmuyor
F Am F
Tadını bilmiyor,Sen benim olmasan da
F Dm F
İçimdeki susmuyor,Damarına basmadıkça
E
Kendini bulmuyor Aman aman )
Dm E Dm&E )2 kere
Kendini bulmuyor Aman aman )


Sonlardaki solo kısmı
E||-----------------------------------------------|
B||-5-6-5-4--5-6-5-4--5-6-5-4--3-3-5-7--9-10-9-9--|
G||-----------------------------------------------|
D||-----------------------------------------------|
A||-----------------------------------------------|
E||-----------------------------------------------|

E||--------------------l---------------------------|
B||-6-6-6-5-5-5---4-5--l-----------5---------------|
G||-------------5------l-4-4-4-5-7---7-5-4-2-------|
D||--------------------1---------------------------|
A||--------------------1---------------------------|
E||--------------------1---------------------------|

E||-----------------l-12-13-12--------------------------|
B||-----------------l----------12-13-12--9-10-9---------|
G||-1-2-1-2-1-------l---------------------------9-10-9--|
D||-----------2-3-2-l-----------------------------------|
A||-----------------l-----------------------------------|
E||-----------------l-----------------------------------|

E||-----------------------------------------------------|
B||------8---------------------------9-10-12-13-12------|
G||-9-10---10-9-7-------------7-9-10---------------9-10-|
D||---------------10-9-7-9-10---------------------------|
A||-----------------------------------------------------|
E||-----------------------------------------------------|

Am Am F
Aaaaaaahhhh.. Görmeden olmuyor
F Am F
Tadını bilmiyor,Sen benim olmasan da
F Dm F
İçimdeki susmuyor,Damarına basmadıkça
E
Kendini bulmuyor Aman aman )
Dm E Dm&F )
Kendini bulmuyor Aman aman




Çatal Yürektab - Athena akoru
Çatal Yürektab - Athena notaları,
Çatal Yürektab - Athena tablar bas tablar akord akor oku



iletisim  Reklam  Gizlilik sözlesmesi
Diger sitelerimize baktiniz mi ? Radyo Dinle - milli piyango sonuclari - 2017 yeni yil mesajlari - Güzel sözler Sohbet 2003- 2016 Canim.net Her hakki saklidir.