Güzel sözler | Fıkra | Hikaye | Şiir - Şair| Şarkı sözleri | Türküler | Sohbet odaları | Rüya | Sağlık | Biyografi | islam | Güzeller | Paylaş


Canim.net
Akorlar
Akor Ekle
Şarkı sözleri
Yabancı şarkı sözleri
Çeviriler
Türkü
A  B  C  Ç  D  E  F  G  Ğ  H  I  İ  J  K  L  M  N  O  Ö  P  R  S  Ş  T  U  Ü  V  Y  Z 



Cross Of Thorns tab - Black Sabbath



|---------------------------------------------------------------------------------
|---------------------------------------------------------------------------------
|---------------------------------------------------------------------------------
|------9-----9---9-----10-----10-10&1210-----9-----9---9-----10-----10-10&1210--
|----7-----7---------7------7---------------7-----7---------7------7--------------
|--0-----0-----0---0------0---------------0-----0-----0---0------0----------------


|----------------------------------------------------------------------------------
|----------------------------------------------------------------------------------
|--------------------------------------------------------12--5-5------------&9-7--
|--------------------------------------------------------12--5-5----5-5-5-5-&9-7--
|------7p5-5h7-----7p5-5h7-------7p5-5h7-----7p5-5h7-7--10--3-3----5-5-5-5-&7-5--
|---0---------0-0----------&7-0---------0-0------------------------3-3-3-3-------


we gave you yesterday..
|-------------------------------------------------------------
|-------------------------------------------------------------
|-------------------------------------------------------------
|-5-5-5-5-5-5-5-5-5-5-5-2-4-5-4-5-7-5-4-5-5-5-5---------------
|-3-3-3-3-3-3-3-3-3-3-3-0-2-3-2-3-5-3-2-3-3-3-3--and so on.---
|-------------------------------------------------------------

now all we is...
|------------------------------------------------------------------
|-1----7--8--------------------------------------------------------
|-2----8--9---------------8--9--11---------------------------------
|-2----9-10---9---9-9-----8--9--11------4-5-----5---4-5-7---12-11--
|-0-----------9---9-9-----6--7---9----2------2--3---2-3-5---10--9--
|-------------7---7-7---------------0------------------------------


|-------------------------------------------------------------
|-------------------------------------------------------------
|-------------------------------------------------------------
|------4-5-----5------4---7------4-5-----5--------------------
|----2------2--3------2---5----2------2--3--------------------
|--0-------------------------0--------------------------------


|--^^^17---------------------------------------------------------------
|----------------------------------------------------------------------
|----------------11-12---------14-12--------11-11h12-11----14-12-11----
|-------------14------------14-----------14-------------14----------14-
|----------14------------14-----------14-------------------------------
|----------------------------------------------------------------------


|-------------------------------------------------------------
|----12----------------------------------------solo in E------
|-&12--12-11-----7--------------------------------------------
|------------14----9-8-7---&9-7---787878----------------------
|------------------------10-------------10--------------------
|-------------------------------------------------------------




Cross Of Thorns tab - Black Sabbath akoru
Cross Of Thorns tab - Black Sabbath notaları,
Cross Of Thorns tab - Black Sabbath tablar bas tablar akord akor oku



iletisim  Reklam  Gizlilik sözlesmesi
Diger sitelerimize baktiniz mi ? Radyo Dinle - milli piyango sonuclari - 2017 yeni yil mesajlari - Güzel sözler Sohbet 2003- 2016 Canim.net Her hakki saklidir.