Güzel sözler | Fıkra | Hikaye | Şiir - Şair| Şarkı sözleri | Türküler | Sohbet odaları | Rüya | Sağlık | Biyografi | islam | Güzeller | Paylaş


Canim.net
Akorlar
Akor Ekle
Şarkı sözleri
Yabancı şarkı sözleri
Çeviriler
Türkü
A  B  C  Ç  D  E  F  G  Ğ  H  I  İ  J  K  L  M  N  O  Ö  P  R  S  Ş  T  U  Ü  V  Y  Z 



Cross My Heart tab - Carcass



RIFF A:
-------

RIFF A1
|---------------------------------|---------------------------------|
|---------------------------------|---------------------------------|
|---------------------------------|---------------------------------|
|-3-------3---9~------------------|-------------8------------------|
|-1---4---1---7~------------------|-------------6------------------|
|-----2---------------------------|---------------------------------|

RIFF A2 2 guitars (left=upper, right=lower)
|---------------------------------|---------------------------------|
|---------------------------------|---------------------------------|
|---------------------------------|---------11--9---8--------------|
|-3-------3---9~------------------|---------------------------------|
|-1---4---1---7~------------------|---------9---7---6--------------|
|-----2---------------------------|---------------------------------|

RIFF A3
|---------------------------------|---------------------------------|
|---------------------------------|---------------------------------|
|---------------------------------|---------------------------------|
|-3-------3---9~------------------|---------11--9---8--------------|
|-1---4---1---7~------------------|---------9---7---6--------------|
|-----2---------------------------|---------------------------------|

RIFF A4
|-----------------
|-----------------
|-----------------
|-3-------3---9---
|-1---4---1---7---
|-----2-----------


-> RIFF A1 x 3
-> RIFF A2 x 1
-> RIFF A4 x 1

RIFF B:
-------

RIFF B1
|---------------------------------|---------------------------------|
|---------------------------------|---------------------------------|
|---------------------------------|---------------------------------|
|(9)------------------------------|---------------------------------|
|(7)----------8-------------------|-6-----------8-------------------|
|-----0-0-0---6---0-0-0---0-0-0-0-|-4---0-0-0---6---0-0-0---0-0-0-0-|
. . . . . . . . . . . . . . . . . . . .

RIFF B2
|---------------------------------|---------------------------------|
|---------------------------------|---------------------------------|
|---------------------------------|---------------------------------|
|-9-------------------------------|---------------------------------|
|-7-----------8-------------------|-6-----------8-------------------|
|-----0-0-0---6---0-0-0---0-0-0-0-|-4---0-0-0---6---0-0-0---0-0-0-0-|
. . . . . . . . . . . . . . . . . . . .

RIFF B3
|---------------------------------|---------------------------------|
|---------------------------------|---------------------------------|
|---------------------------------|---------------------------------|
|-9-------------------------------|---------------------------------|
|-7-----------8-------------------|-6--4---6-&-8------------------|
|-----0-0-0---6---0-0-0---0-0-0-0-|-4--2---4-&-6------0---0-0-0-0-|
. . . . . . . . . . . . . . .

RIFF B4
|---------------------------------|-----------------
|---------------------------------|-----------------
|---------------------------------|----------------- go to RIFF A
|-9-------------------------------|-----------------
|-7-----------8-------------------|-6--4---6-------
|-----0-0-0---6---0-0-0---0-0-0-0-|-4--2---4---0-0-
. . . . . . . . . . . .

-> RIFF B1 x 1

-> RIFF B3 x 1
> x 3
-> RIFF B2 x 1 &

-> RIFF B4 x 1

-> RIFF A1 x 1
-> RIFF A3 x 1
-> RIFF A4 x 1

-> RIFF B1 x 1
-> RIFF B3 x 1
-> RIFF B2 x 1
-> RIFF B3 x 1


RIFF C:
-------

|---------------------------------|---------------------------------|
|-------------4-----------4-------|-------------3-----------3-------|
|-5-------------------5-------5---|-4-------------------4-------4---|
|-5-------------------------------|-4-------------------------------|
|-3-------------------------------|-2-------------------------------|
|---------------------------------|---------------------------------|
. . . .

|---------------------------------|---------------------------------|
|---------------------------------|---------------------------------|
|-2-----------2-----------2-&-4---|-------------2-------------------|
|-2-------------------2-----------|-5-------5-----------5---3-------|
|-0-------------------------------|-5---5---------------------------|
|---------------------------------|-3---------------------------1---|
. .

|---------------------------------|---------------------------------|
|-------------4-----------4-------|-------------3-------------------|
|-5-------------------5-------5---|-4-------------------4-----------|
|-5-------------------------------|-4-------------------------------|
|-3-------------------------------|-2----------------------<2>~-----|
|---------------------------------|---------------------------------|
. .

-> RIFF C x 1


RIFF D:
-------

RIFF D1
|---------------------------------|---------------------------------|
|---------------------------------|---------------------------------|
|---------------------------------|---------------------------------|
|---------------------------------|---------------------------------|
|-5h7-----------------------------|---------------------------------|
|-----0-0-0-0-5h6-0-0-0-0-5h6p5---|-0-0-0-0-0-0-0-0-0-0-0-0-0-0-0-0-|
. . . . . . . . . . . . . . . . . . . . . . . .

RIFF D2
|---------------------------------|---------------------------------|
|---------------------------------|---------------------------------|
|---------------------------------|---------------------------------|
|---------------------------------|---------------------------------|
|-5h7-----------------------------|-------------------------5-5-5-5-|
|-----0-0-0-0-5h6-0-0-0-0-5h6-X-X-|-3-3-3-3-5-5-5-5-6-6-6-6---------|
. . . . . . . . . . . . . . . . . . . . . . . .

RIFF D3
|---------------------------------|---------------------------------|
|---------------------------------|---------------------------------|
|---------------------------------|---------------------------------|
|---------------------------------|-5-------------------------------|
|-5h7-----------------------------|-5-------------------------------|
|-----0-0-0-0-5h6-0-0-0-0-5h6-0-0-|-3-------------------------------|
. . . . . . . . . .

RIFF D4
|---------------------------------|
|---------------------------------|
|---------------------------------|
|-7---R---------------------------|
|-7---R---------------------------|
|-5---R---------------------------|

RIFF D5
|---------------------------------|
|---------------------------------|
|---------------------------------|
|-7---------------9---------------|
|-7---------------9---------------|
|-5---------------7---------------|

RIFF D6
|-------------|
|-------------|
|-------------|
|-7-----------|
|-7-----------|
|-5-----------|


-> RIFF D1 x 1
-> RIFF D2 x 1
-> RIFF D1 x 1
-> RIFF D4 x 1

-> RIFF B2 x 1
> x 2
-> RIFF B3 x 1 &


-> RIFF C x 1

-> RIFF D1 x 1
-> RIFF D2 x 1
-> RIFF D1 x 1
-> RIFF D5 x 1

-> RIFF B2 x 1
> x 4
-> RIFF B3 x 1 &

-> RIFF C x 1

-> RIFF D1 x 1
> x 3
-> RIFF D2 x 1 &

-> RIFF D1 x 1
-> RIFF D6 x 1

-> RIFF A1 x 3
-> RIFF A2 x 1
-> RIFF A4 x 1 (Ending with slide)


SOLO:
-----

The solo goes something like this -

12-fade-in----------------------|
--------------------------------|
--------------------------------|
--------------------------------|
--------------------------------|
--------------------------------|


|-----14--15--15--17--15--14--14------14--15--15--19--15--14--14--|
|-17------------------------------17------------------------------|
|-----------------------------------------------------------------|
|-----------------------------------------------------------------|
|-----------------------------------------------------------------|
|-----------------------------------------------------------------|


|-----14--15--15--22--15--14--14------14--15--15--19------15--14--|
|-17------------------------------17------------------------------|
|-----------------------------------------------------------------|
|-----------------------------------------------------------------|
|-----------------------------------------------------------------|
|-----------------------------------------------------------------|


|-----14--15--15--17--15--14--14------14--15--15--19--15--14------|
|-17------------------------------17--------------------------17--|
|-----------------------------------------------------------------|
|-----------------------------------------------------------------|
|-----------------------------------------------------------------|
|-----------------------------------------------------------------|


|-----------------------------------------------------------------|
|-17b-------------17brp15---------------------------------12--12--|
|---------------------------------<15>~---------------------------|
|-----------------------------------------------------------------|
|-----------------------------------------------------------------|
|-----------------------------------------------------------------|

T T T
|-13-p12-h13-p12--16-p12-h13-p12--17-p12-h13-p12-19-p12-h13-p12---|
|-----------------------------------------------------------------|
|-----------------------------------------------------------------|
|-----------------------------------------------------------------|
|-----------------------------------------------------------------|
|-----------------------------------------------------------------|

T T T T
|-20-p12-h13-p12--19-p12-h13-p12--17-p12-h13-p12-16-p12-h13-p12---|
|-----------------------------------------------------------------|
|-----------------------------------------------------------------|
|-----------------------------------------------------------------|
|-----------------------------------------------------------------|
|-----------------------------------------------------------------|




Cross My Heart tab - Carcass akoru
Cross My Heart tab - Carcass notaları,
Cross My Heart tab - Carcass tablar bas tablar akord akor oku



iletisim  Reklam  Gizlilik sözlesmesi
Diger sitelerimize baktiniz mi ? Radyo Dinle - milli piyango sonuclari - 2017 yeni yil mesajlari - Güzel sözler Sohbet 2003- 2016 Canim.net Her hakki saklidir.