Güzel sözler | Fıkra | Hikaye | Şiir - Şair| Şarkı sözleri | Türküler | Sohbet odaları | Rüya | Sağlık | Biyografi | islam | Güzeller | Paylaş


Canim.net
Akorlar
Akor Ekle
Şarkı sözleri
Yabancı şarkı sözleri
Çeviriler
Türkü
A  B  C  Ç  D  E  F  G  Ğ  H  I  İ  J  K  L  M  N  O  Ö  P  R  S  Ş  T  U  Ü  V  Y  Z 



Crimson Windstab - Dark Tranquillity



Intro:

|----------------------------|-----------------------------|
|----------------------------|-3h5-6-5-3-(5)-(3)-----------|
|--5-7&8---6-8&9-(8)-6-------|-----------------------------|
|----------------------------|-----------------------------|
|----------------------------|-----------------------------|
|----------------------------|-----------------------------|


|----------------------------|-----------------------------|
|-7-2-7-6----3h5-6-5-3-(5)(3)|-----------------------------|
|----------------------------|--5-7&8---6-8&9-(8)-6--------|
|----------------------------|-----------------------------|
|----------------------------|-----------------------------|
|----------------------------|-----------------------------|


|----------------------------|-----------------------------|
|--3h5-6-5-3---(5)-(3)-------|----7-2-7---6-5--------------|
|----------------------------|-----------------------------|
|----------------------------|-----------------------------|
|----------------------------|-----------------------------|
|----------------------------|-----------------------------|


|----------------------------|-----------------------------|
|--7-5-----5-7-(5)------2----|-----------------------------|
|-------4-----------(4)------|-5-7&8-6---8&9-(8)-6---------|
|----------------------------|-----------------------------|
|----------------------------|-----------------------------|
|----------------------------|-----------------------------|


|----------------------------|-----------------------------|
|----3h5-6-5-3-(5)-(3)-------|--7-2---7-6------------------|
|----------------------------|-----------------------------|
|----------------------------|-----------------------------|
|----------------------------|-----------------------------|
|----------------------------|-----------------------------|


|----------------------------|-----------------------------|
|----------------------------|--3h5-6-5-3---(5)-(3)--------|
|-5-7&8-6-8&9---(8)-6--------|-----------------------------|
|----------------------------|-----------------------------|
|----------------------------|-----------------------------|
|----------------------------|-----------------------------|


|----------------------------|-----------------------------|
|--7-2---7-6-7---------------|-7-5----5-7-(5)----2---2-5-4-|
|----------------------------|------4---------(4)----------|
|----------------------------|-----------------------------|
|----------------------------|-----------------------------|
|----------------------------|-----------------------------|

Part 2 (I really have no clue how to tab that out, please
mail me if you have that part)


at 3.12 on cd

|----------------------------|-----------------------------|
|-9-7-9-7-9-7-9-5-7-5-7-5-7--|-3-5-3-5-3-5-3-2-3-2-3-2-----|
|----------------------------|-----------------------------|
|----------------------------|-----------------------------|
|----------------------------|-----------------------------|
|----------------------------|-----------------------------|
repeat 2x

|----------------------------|-----------------------------|
|-12-10-12-10-12-10-12-9-10--|-9-10-9-10-7-9-7-9-7-9-7-----|
|----------------------------|-----------------------------|
|----------------------------|-----------------------------|
|----------------------------|-----------------------------|
|----------------------------|-----------------------------|


|----------------------------|
|-9h10h9h10------------------|
|----------------------------|
|----------------------------|
|----------------------------|
|----------------------------|
repeat 2x


at 3.37 on cd (time)

|----------------------------|-----------------------------|
|-12-10-8-7------------------|-5-7-8---7-5-8-7-------------|
|----------------------------|-----------------------------|
|----------------------------|-----------------------------|
|----------------------------|-----------------------------|
|----------------------------|-----------------------------|


|----------------------------|-----------------------------|
|-15-12-10-8-10-8-10-8-------|-8-10-12----10-12-15-13-12---|
|----------------------------|-----------------------------|
|----------------------------|-----------------------------|
|----------------------------|-----------------------------|
|----------------------------|-----------------------------|

Ok now best part of whole song (solo)

|-12-10-8-7------------------|-5-7-8-5---8-7---------------|
|----------------------------|-----------------------------|
|----------------------------|-----------------------------|
|----------------------------|-----------------------------|
|----------------------------|-----------------------------|
|----------------------------|-----------------------------|





|-12-10-8-7------------------|-5-7-8-5-7----5-8-7----------|
|----------------------------|-----------------------------|
|----------------------------|-----------------------------|
|----------------------------|-----------------------------|
|----------------------------|-----------------------------|
|----------------------------|-----------------------------|


|-15-15-15-13&17~-15---------|-10h12h10h12h10h12h10h12h13h-|
|----------------------------|-----------------------------|
|----------------------------|-----------------------------|
|----------------------------|-----------------------------|
|----------------------------|-----------------------------|
|----------------------------|-----------------------------|


|-12h13h12h13h15h13h15h13h15-|-14-15-----------------------|
|----------------------------|-----------------------------|
|----------------------------|-----------------------------|
|----------------------------|-----------------------------|
|----------------------------|-----------------------------|
|----------------------------|-----------------------------|


|-15-15-15-15-15-15----------|-13-13-13-13-13-13-----------|
|----------------------------|-----------------------------|
|----------------------------|-----------------------------|
|----------------------------|-----------------------------|
|----------------------------|-----------------------------|
|----------------------------|-----------------------------|


|--10-12-13-10-13-12---------|
|----------------------------|
|----------------------------|
|----------------------------|
|----------------------------|
|----------------------------|




Crimson Windstab - Dark Tranquillity akoru
Crimson Windstab - Dark Tranquillity notaları,
Crimson Windstab - Dark Tranquillity tablar bas tablar akord akor oku



iletisim  Reklam  Gizlilik sözlesmesi
Diger sitelerimize baktiniz mi ? Radyo Dinle - milli piyango sonuclari - 2017 yeni yil mesajlari - Güzel sözler Sohbet 2003- 2016 Canim.net Her hakki saklidir.