Güzel sözler | Fıkra | Hikaye | Şiir - Şair| Şarkı sözleri | Türküler | Sohbet odaları | Rüya | Sağlık | Biyografi | islam | Güzeller | Paylaş


Canim.net
Akorlar
Akor Ekle
Şarkı sözleri
Yabancı şarkı sözleri
Çeviriler
Türkü
A  B  C  Ç  D  E  F  G  Ğ  H  I  İ  J  K  L  M  N  O  Ö  P  R  S  Ş  T  U  Ü  V  Y  Z 



Crests Of Waves tab - Coldplay



e|--0----0-0-0----|
B|--0----0-0-0----|
G|--0----0-0-0----|
D|--2----2-2-2----|
A|--2----2-2-2----|
E|--0----0-0-0----|

Am Am
e|--3p0---------------------3p0----------------------|
B|--1-------1p0---0---------1-------1p0---0----------|
G|--2---0h2-----2---2p0-2---2---0h2-----2---2p0-2----|
D|--2-----------------------2------------------------|
A|--0-----------------------0------------------------|
E|---------------------------------------------------|

Am F Em
e|--3p0---------------------1-1-1-1--0-0-0-0----------|
B|--1-------1p0---0---------1-1-1-1--0-0-0-0----------|
G|--2---0h2-----2---2p0-2---2-2-2-2--0-0-0-0----------|
D|--2-----------------------2-2-2-2--2-2-2-2----------|
A|--0-----------------------3-3-3-3--2-2-2-2----------|
E|--------------------------1-1-1-1--0-0-0-0----------|

Verse:
It could be worse, I could be alone, I could be locked in here on my own
Am F Fmaj7 Em
e|---0--0--0--0--0--0--0---1--1--1--1--1---0--0--0--0--0---0--0--0--0--0----|
B|---1--1--1--1--1--1--1---1--1--1--1--1---1--1--1--1--1---0--0--0--0--0----|
G|---2--2--2--2--2--2--0---2--2--2--2--2---2--2--2--2--2---0--0--0--0--0----|
D|---2--2--2--2--2--2--2---3--3--3--3--3---3--3--3--3--3---2--2--2--2--2----|
A|---0--0--0--0--0--0--0---3--3--3--3--3---0--0--0--0--0---2--2--2--2--2----|
E|-------------------------1--1--1--1--1-------------------0--0--0--0--0----|

Or like a stone that suddenly drops, It never stops, no,
Am F Fmaj7 Em
e|---0--0--0--0--0--0--0---1--1--1--1--1---0--0--0--0--0---0--0--0--0--0----|
B|---1--1--1--1--1--1--1---1--1--1--1--1---1--1--1--1--1---0--0--0--0--0----|
G|---2--2--2--2--2--2--0---2--2--2--2--2---2--2--2--2--2---0--0--0--0--0----|
D|---2--2--2--2--2--2--2---3--3--3--3--3---3--3--3--3--3---2--2--2--2--2----|
A|---0--0--0--0--0--0--0---3--3--3--3--3---0--0--0--0--0---2--2--2--2--2----|
E|-------------------------1--1--1--1--1-------------------0--0--0--0--0----|

I could be lost, or I could be saved, calling out from beneath the waves,
Am F Fmaj7 Em
e|---0--0--0--0--0--0--0---1--1--1--1--1---0--0--0--0--0---0--0--0--0--0----|
B|---1--1--1--1--1--1--1---1--1--1--1--1---1--1--1--1--1---0--0--0--0--0----|
G|---2--2--2--2--2--2--0---2--2--2--2--2---2--2--2--2--2---0--0--0--0--0----|
D|---2--2--2--2--2--2--2---3--3--3--3--3---3--3--3--3--3---2--2--2--2--2----|
A|---0--0--0--0--0--0--0---3--3--3--3--3---0--0--0--0--0---2--2--2--2--2----|
E|-------------------------1--1--1--1--1-------------------0--0--0--0--0----|

Beaten down by this social raves, never again, never again,
Am F Fmaj7 Em
e|---0--0--0--0--0--0--0---1--1--1--1--1---0--0--0--0--0---0--0--0--0--0----|
B|---1--1--1--1--1--1--1---1--1--1--1--1---1--1--1--1--1---0--0--0--0--0----|
G|---2--2--2--2--2--2--0---2--2--2--2--2---2--2--2--2--2---0--0--0--0--0----|
D|---2--2--2--2--2--2--2---3--3--3--3--3---3--3--3--3--3---2--2--2--2--2----|
A|---0--0--0--0--0--0--0---3--3--3--3--3---0--0--0--0--0---2--2--2--2--2----|
E|-------------------------1--1--1--1--1-------------------0--0--0--0--0----|

Chrous (same as intro)
ohhhhhhh...... ohhhhhhh.......
Am Am
e|--3p0---------------------3p0----------------------|
B|--1-------1p0---0---------1-------1p0---0----------|
G|--2---0h2-----2---2p0-2---2---0h2-----2---2p0-2----|
D|--2-----------------------2------------------------|
A|--0-----------------------0------------------------|
E|---------------------------------------------------|

ohhhhhhh....... Im screaming out from the crests of waves
Am F Em
e|--3p0---------------------1-1-1-1--0-0-0-0----------|
B|--1-------1p0---0---------1-1-1-1--0-0-0-0----------|
G|--2---0h2-----2---2p0-2---2-2-2-2--0-0-0-0----------|
D|--2-----------------------2-2-2-2--2-2-2-2----------|
A|--0-----------------------3-3-3-3--2-2-2-2----------|
E|--------------------------1-1-1-1--0-0-0-0----------|

Repeat Intro It could be worse; its all sweet
Repeat Verse Chords It could be snapped from the jaws of defeat
Repeat Chrous or like a lightening up on the beach
You wear your heart on your sleeve, Ohhh
Bridge
nothing matters.... except not for the love we make
Dm C
e|--5-5-5-5-5-5-5-5-5---3-3-3-3-3-3-3-3-3-3----------|
B|--6-6-6-6-6-6-6-6-6---5-5-5-5-5-5-5-5-5-5----------|
G|--7-7-7-7-7-7-7-7-7---5-5-5-5-5-5-5-5-5-5----------|
D|---------------------------------------------------|
A|---------------------------------------------------|
E|---------------------------------------------------|

nothing matters.... except not for the love we make
Dm C
e|--5-5-5-5-5-5-5-5-5---3-3-3-3-3-3-3-3-3-3----------|
B|--6-6-6-6-6-6-6-6-6---5-5-5-5-5-5-5-5-5-5----------|
G|--7-7-7-7-7-7-7-7-7---5-5-5-5-5-5-5-5-5-5----------|
D|---------------------------------------------------|
A|---------------------------------------------------|
E|---------------------------------------------------|

nothing matters.... except not for the love we make
Dm C
e|--5-5-5-5-5-5-5-5-5---3-3-3-3-3-3-3-3-3-3----------|
B|--6-6-6-6-6-6-6-6-6---5-5-5-5-5-5-5-5-5-5----------|
G|--7-7-7-7-7-7-7-7-7---5-5-5-5-5-5-5-5-5-5----------|
D|---------------------------------------------------|
A|---------------------------------------------------|
E|---------------------------------------------------|

nothing matters.... except not for the love we make
Dm E
e|--5-5-5-5-5-5-5-5-5---7-7-7-7-7-7-7-7-7-7----------|
B|--6-6-6-6-6-6-6-6-6---9-9-9-9-9-9-9-9-9-9----------|
G|--7-7-7-7-7-7-7-7-7---9-9-9-9-9-9-9-9-9-9----------|
D|---------------------------------------------------|
A|---------------------------------------------------|
E|---------------------------------------------------|

Chrous (same as intro)
ohhhhhhh...... ohhhhhhh.......
Am Am
e|--3p0---------------------3p0----------------------|
B|--1-------1p0---0---------1-------1p0---0----------|
G|--2---0h2-----2---2p0-2---2---0h2-----2---2p0-2----|
D|--2-----------------------2------------------------|
A|--0-----------------------0------------------------|
E|---------------------------------------------------|

ohhhhhhh....... Im screamin out from the crests of waves
Am F Em
e|--3p0---------------------1-1-1-1--0-0-0-0----------|
B|--1-------1p0---0---------1-1-1-1--0-0-0-0----------|
G|--2---0h2-----2---2p0-2---2-2-2-2--0-0-0-0----------|
D|--2-----------------------2-2-2-2--2-2-2-2----------|
A|--0-----------------------3-3-3-3--2-2-2-2----------|
E|--------------------------1-1-1-1--0-0-0-0----------|

outro

Im screamin out from the crests of waves
F Em
e|--1-1-1-1-----0-0-0-0----------|
B|--1-1-1-1-----0-0-0-0----------|
G|--2-2-2-2-----0-0-0-0----------|
D|--2-2-2-2-----2-2-2-2----------|
A|--3-3-3-3-----2-2-2-2----------|
E|--1-1-1-1-----0-0-0-0----------|

for so long I seem to say
F Em
e|--1-1-1-1--0-0-0-0----------|
B|--1-1-1-1--0-0-0-0----------|
G|--2-2-2-2--0-0-0-0----------|
D|--2-2-2-2--2-2-2-2----------|
A|--3-3-3-3--2-2-2-2----------|
E|--1-1-1-1--0-0-0-0----------|




Crests Of Waves tab - Coldplay akoru
Crests Of Waves tab - Coldplay notaları,
Crests Of Waves tab - Coldplay tablar bas tablar akord akor oku



iletisim  Reklam  Gizlilik sözlesmesi
Diger sitelerimize baktiniz mi ? Radyo Dinle - milli piyango sonuclari - 2017 yeni yil mesajlari - Güzel sözler Sohbet 2003- 2016 Canim.net Her hakki saklidir.