Güzel sözler | Fıkra | Hikaye | Şiir - Şair| Şarkı sözleri | Türküler | Sohbet odaları | Rüya | Sağlık | Biyografi | islam | Güzeller | Paylaş


Canim.net
Akorlar
Akor Ekle
Şarkı sözleri
Yabancı şarkı sözleri
Çeviriler
Türkü
A  B  C  Ç  D  E  F  G  Ğ  H  I  İ  J  K  L  M  N  O  Ö  P  R  S  Ş  T  U  Ü  V  Y  Z 



Complicated - Avril Lavigne



Intro:
Guitar 1
1 & 2 & 3 & 4 & 1 & 2 & 3 & 4 & 1 & 2 & 3 & 4 & 1 & 2 & 3 & 4 &
e------------------|----------------|----------------|----------------|
B--1h3-------------|---------------1|-1h3---1&3------|-------------6p5|
G--2---------------|---2----&5------|--2-------------|----------------|
D--0---------------|-3--------------|--0-------------|-3--------------|
A------------------|----------------|----------------|----------------|
E------------------|----------------|----------------|----------------|


Guitar 2 (all pm)
1 & 2 & 3 & 4 & 1 & 2 & 3 & 4 & 1 & 2 & 3 & 4 & 1 & 2 & 3 & 4 &
e------------------|----------------|----------------|----------------|
B------------------|----------------|----------------|----------------|
G-----------------2|-----5-5--------|---------------2|---3-5-5--------|
D------------------|-3-5-3-3--------|----------------|-3-5-3-3--------|
A------------------|----------------|----------------|----------------|
E------------------|----------------|----------------|----------------|


Guitar 1
1 & 2 & 3 & 4 + & + 1 & 2 & 3 & 4 & 1 & 2 & 3 & 4 + & +
e------------------------|----------------|------------------------|
B--10----------10-10-----|-8&10------5b---|--10----------10-10-----|
G-------------------10-10|----------5-----|-------------------10-10|
D------------------------|----------------|------------------------|
A------------------------|----------------|------------------------|
E------------------------|----------------|------------------------|
1 & 2 & 3 & 4 & 1 2 3 4
e----------------|--------|
B-8&10----10&5b--|6-------|
G----------------|--------|
D----------------|--------|
A----------------|--------|
E----------------|--------|


Guitar 2 (clean this time)
1 & 2 & 3 & 4 & 1 & 2 & 3 & 4 & 1 & 2 & 3 & 4 & 1 & 2 & 3 & 4 &
e------8-----------|----13--12------|------8---------|---------------|
B--10--------------|----------------|10----10--------|---------------|
G------------------|10--------------|----------------|(10)-----------|
D------------------|----------------|----------------|---------------|
A------------------|----------------|----------------|---------------|
E------------------|----------------|----------------|---------------|


Intro (Acoustic):
Dm F
Uh huh
C
Lifes like this
Dm F
Uh huh, uh huh
C
Thats the way it is
Dm F C
Cause lifes like this
Dm F
Uh huh uh huh
C
Thats the way it is


Verse:(Acoustic)
F
Chill out, whatcha yelling for?
Dm
Lay back, its all been done before
Bb C
And if, you could only let it be, you will see
F
I like, you the way you are
Dm
When were, driving in your car
Bb C
And youre, talking to me one on one, but you become

Bb (Bb)
Somebody else, round everyone else
Dm (D)
Watchin your back, like you cant relax
Bb
You try to be cool, you look like a fool to
C (let it ring)
Me, tell me


Chorus: (acoustic doesnt play here, but here are the chords anyway)

Chorus:
Whyd you have... things... -cated see the way...
e-----------------|-----------------|-----------------|----------------|
B-----1h3---------|-----------------|-----------------|----------------|
G-----2-----------|-----------------|-----------------|----------------|
D-----0-----------|-----3--3--3-----|--------3--------|-----5-----3--5-|
A-----------------|-----------------|-----3-----3-----|--3-----3-------|
E-----------------|-----------------|-----------------|----------------|

Actin like... else, gets... -ated... and lifes like..
e-----------------|-----------------|-----------------|----------------|
B-----------------|-----------------|-----------------|----------------|
G-------2---------|-----------------|-----------------|----------------|
D-----0---0-------|-----3--3--3-----|--------3--------|-----5-----3--5-|
A-----------------|-----------------|-----3-----3-----|--3-----3-------|
E-----------------|-----------------|-----------------|----------------|

you fall... crawl... take... turn...
e-----------------|-----------------|-----------------|----------------|
B-----------------|-----------------|-----------------|----------------|
G------2----------|-----------------|-----------------|----------------|
D----0---0--------|--------3--------|--------3--------|-----5----------|
A-----------------|------1---1------|-----3-----3-----|--3-----3-------|
E-----------------|-----------------|-----------------|----------------|
then
Gm Bb (let it ring)
e----3------------|---1-------------|
B----3------------|---3-------------|
G----3------------|---3-------------|
D----5------------|---3-------------|
A----5------------|---1-------------|
E----3------------|---1-------------|

Dm Bb F
Whyd you have to go and make things so complicated?
C
I see the way youre
Dm Bb F
Actin like youre somebody else, gets me frustrated
C
And lifes like this you
Dm Bb
You fall, and you crawl, and you break
F C
And you take, what you get, and you turn it into
Gm Bb (let it ring)
Honestly you promised me Im never going to find you fakinNo no no


Verse 2: (Acoustic)
F
You come, over unannounced
Dm
Dressed up, like youre something else
Bb C
Where you, are and where its at you see, youre making me
F
Laugh out, when you strike a pose
Dm
Take off, all youre preppy clothes
Bb C
You know, youre not fooling anyone, when you become


Pre-Chorus
Chorus
Bridge: (only bass and violin here, but here are the chords anyway)
(if you really want, i can tab violin part on an actual violin...)
F
No no (no no)
Dm
No no (no no)
Bb
No No (no no)
C
No...


Verse3: Acoustic
F
Chill out, whatcha yelling for?
Dm
Lay back, its all been done before
Bb C
And if, you could only let it be, you will see


Pre-Chorus
Chorus x2




Complicated - Avril Lavigne akoru
Complicated - Avril Lavigne notaları,
Complicated - Avril Lavigne tablar bas tablar akord akor oku



iletisim  Reklam  Gizlilik sözlesmesi
Diger sitelerimize baktiniz mi ? Radyo Dinle - milli piyango sonuclari - 2017 yeni yil mesajlari - Güzel sözler Sohbet 2003- 2016 Canim.net Her hakki saklidir.