Güzel sözler | Fıkra | Hikaye | Şiir - Şair| Şarkı sözleri | Türküler | Sohbet odaları | Rüya | Sağlık | Biyografi | islam | Güzeller | Paylaş


Canim.net
Akorlar
Akor Ekle
Şarkı sözleri
Yabancı şarkı sözleri
Çeviriler
Türkü
A  B  C  Ç  D  E  F  G  Ğ  H  I  İ  J  K  L  M  N  O  Ö  P  R  S  Ş  T  U  Ü  V  Y  Z 



Chronicles Of The Damned tab - Kataklysm



" - tremelo pick
___ - palm mute
h - hammer on
p - pull off


INTRO:

|-------------------------|
|-------------------------|
|-------------------------|
|-------------------------|
|-2--2--2--2--2--2--2--2--|
|-0--0--0--0--0--0--0--0--|


VERSE:

|--------------------------------------------
|--------------------------------------------
|--------------------------------------------
|--------------------------9"------10"---9"--
|----7"-5"-7"----7"-5"----10"---9"-12"--10"--
|-0"----------0"-------7"--------------------
__ __

-------------------------------------------|
-------------------------------------------|
-------------------------------------------|
--------------------------9"---------------|
----7"-5"-7"----7"-5"----10"---9"--9"--7"--|
-0"----------0"-------7"----------10"--9"--| 2x
__ __


CHORUS A:

|-----------------------------------------------------------|
|-----------------------------------------------------------|
|-----------------------------------------------------------|
|-9---------------5-----5---5---0-----5---5---4-444-5-4-2-0-|
|-7-777-7h9p7-777-3-333---3---3-2-222---2---2-2-------------|
|-----------------------------------------------------------| 4x
___ ___ ___ _ _ ___ _ _ ___________


VERSE - 2x


CHORUS B:

|-----------------------------------------------------------|
|-----------------------------------------------------------|
|-----------------------------------------------------------|
|-9---------------5-------------0-----2---2---4-----5p4-----|
|-7-777-10-7-10-7-3-333-5-3-5-3-2-222---2---2-2-222-----5---|
|-----------------------------------------------------------| 4x
___ _ _ ___ _ _ ___ _ _ ___


INTRO


INTERLUDE:

|----------| |------------| |----------|
|----------| |------------| |----------|
|----------| |------------| |----------|
|----------| |------------| |----5--3--|
|-2--5--3--| |-2--5-5-3-3-| |-2--5--3--|
|-0--3--1--| 8x |-0--3-3-1-1-| 8x |-0--3--1--| 8x
_____ _______


INTRO


VERSE - 2x


CHORUS A - 4x


CHORUS B - 4x


OUTRO:

|--------------------------------------------------------------------------|
|--------------------------------------------------------------------------|
|--------------------------------------------------------------------------|
|-2--5--8--7--7--7--10--7--5--8--7--3--------------------------------------|
|-2--5--8--7--7--7--10--7--5--8--7--3--2--5--3--2--5--3--2--5--3--2--5--3--|
|-0--3--6--5--5--5---8--5--3--6--5--1--0--3--1--0--3--1--0--3--1--0--3--1--| 4x
____ ____ ____ ____

|----------| |------------| |---|
|----------| |------------| |---|
|----------| |------------| |---|
|----5--3--| |------------| |---|
|-2--5--3--| |-2--5-5-3-3-| |-2-|
|-0--3--1--| 8x |-0--3-3-1-1-| 8x |-0-|




Chronicles Of The Damned tab - Kataklysm akoru
Chronicles Of The Damned tab - Kataklysm notaları,
Chronicles Of The Damned tab - Kataklysm tablar bas tablar akord akor oku



iletisim  Reklam  Gizlilik sözlesmesi
Diger sitelerimize baktiniz mi ? Radyo Dinle - milli piyango sonuclari - 2017 yeni yil mesajlari - Güzel sözler Sohbet 2003- 2016 Canim.net Her hakki saklidir.