Güzel sözler | Fıkra | Hikaye | Şiir - Şair| Şarkı sözleri | Türküler | Sohbet odaları | Rüya | Sağlık | Biyografi | islam | Güzeller | Paylaş


Canim.net
Akorlar
Akor Ekle
Şarkı sözleri
Yabancı şarkı sözleri
Çeviriler
Türkü
A  B  C  Ç  D  E  F  G  Ğ  H  I  İ  J  K  L  M  N  O  Ö  P  R  S  Ş  T  U  Ü  V  Y  Z 



Chop Suey - System Of A Down



E--------------------------------------------------------------]
B--------------------------------------------------------------]
G-----3--&---5-----2-----0-------------------------------------]
D-----5--&---7-----3-----1--------(acoustic)-------------------]X1
A---- 0-&----0-----0-----0-------------------------------------]
D--------------------------------------------------------------]
You can figure out the way to strum it.


This is distorted now. Some of this is palm muted.
E-------------------------------------------------------------------------------
]
B-------------------------------------------------------------------------------
]
G----3----3----3-------5----5---5------2----2---2-------0------0----0-----------
]
D-------5----5----5-------7---7---7------3---3---3---------1-----1-----1--------
]
A-------------------------------------------------------------------------------
]
D-------------------------------------------------------------------------------
]

this here is the mandalin that i prefer playing. PLay each chord a lot.
E---6-----8-----5----10--10---11---8---11------------]
B---8-----10----6----11--11---13---10---13-----------]
G----------------------------------------------------]
D----------------------------------------------------]
A----------------------------------------------------]
D----------------------------------------------------]


E-----------HEAVY PART--------play fast-------------------X2---------------]
B--------------------------------------------------------------------------]
G--------------------------------------------------------------------------]
D--6-5-6-5-6-5-6-5--5-4-5-4-5-4-5-4--8-7-8-7-8-7-8-7--10-9-10-9-10-9-10-9--]
A--6-5-6-5-6-5-6-5--5-4-5-4-5-4-5-4--8-7-8-7-8-7-8-7--10-9-10-9-10-9-10-9--]
D--6-5-6-5-6-5-6-5--5-4-5-4-5-4-5-4--8-7-8-7-8-7-8-7--10-9-10-9-10-9-10-9--]

E---------------------------------------------------]
B---------------------------------------------------]
G---------------------------------------------------]
D---------------------------------------------------]
A-------------------------00000000-33333333---------]
D---55555555-44444444-------------------------------]

E----------------------------verse------------------------]
B------------------------------------------keep repeating-]
G---------------------------------------------------------]
D-----6-5----6-5-6-5-6-5-6-5-5-4--4-5-4-5-4-5-4-5-4-5-----]
A-----6-5----6-5-6-5-6-5-6-5-5 4--4-5-4-5-4-5-4-5-4-5-----]
D-----6-5----6-5-6-5-6-5-6-5-5-4--4-5-4-5-4-5-4-5-4-5-----]
wake up! play the wake up part only once.

E-------------------------------------------------------------------------------
-------]
B-------------------------------------------------------------------------------
-------]
G--3----3---------------5-----5------------2-----2-------------0------0---------
-------]
D-----5----5---5-----------7----7------7------3-----3------3------1-----1-----1-
-------]
A-------------0--------------------0-------------------0-------------------0----
-------]
D-------------------------------------------------------------------------------
-------]
X2

E-----------HEAVY PART--------play fast-------------------X2---------------]
B--------------------------------------------------------------------------]
G--------------------------------------------------------------------------]
D--6-5-6-5-6-5-6-5--5-4-5-4-5-4-5-4--8-7-8-7-8-7-8-7--10-9-10-9-10-9-10-9--]
A--6-5-6-5-6-5-6-5--5-4-5-4-5-4-5-4--8-7-8-7-8-7-8-7--10-9-10-9-10-9-10-9--]
D--6-5-6-5-6-5-6-5--5-4-5-4-5-4-5-4--8-7-8-7-8-7-8-7--10-9-10-9-10-9-10-9--]




E----------------------------verse------------------------]
B------------------------------------------keep repeating-]
G---------------------------------------------------------]
D-----6-5----6-5-6-5-6-5-6-5-5-4--4-5-4-5-4-5-4-5-4-5-----]
A-----6-5----6-5-6-5-6-5-6-5-5 4--4-5-4-5-4-5-4-5-4-5-----]
D-----6-5----6-5-6-5-6-5-6-5-5-4--4-5-4-5-4-5-4-5-4-5-----]
wake up! play the wake up part only once.

I dont think you trust..........
E-------------------------------------------------------------------------------
-------]
B-------------------------------------------------------------------------------
-------]
G--3----3---------------5-----5------------2-----2-------------0------0---------
-------]
D-----5----5---5-----------7----7------7------3-----3------3------1-----1-----1-
-------]
A-------------0--------------------0-------------------0-------------------0----
-------]
D-------------------------------------------------------------------------------
-------]
X whatever, this time its longer before you break into the
heavy part

When angels deserve to die......... dont start breaking loose when he
says "die," wait a couple seconds.

E------------------------------X2-----------------------------------------]
B-------------------------------------------------------------------------]
G-------------------------------------------------------------------------]
D--6-5-6-5-6-5-6-5--5-4-5-4-5-4-5-4--8-7-8-7-8-7-8-7--10-9-10-9-10-9-10-9-]
A--6-5-6-5-6-5-6-5--5-4-5-4-5-4-5-4--8-7-8-7-8-7-8-7--10-9-10-9-10-9-10-9-]
D--6-5-6-5-6-5-6-5--5-4-5-4-5-4-5-4--8-7-8-7-8-7-8-7--10-9-10-9-10-9-10-9-]

E------------------------------X2-----------------------------------------]
B-------------------------------------------------------------------------]
G-------------------------------------------------------------------------]
D--6-5-6-5-6-5-6-5--5-4-5-4-5-4-5-4--8-7-8-7-8-7-8-7--10-9-10-9-10-9-10-9-]
A--6-5-6-5-6-5-6-5--5-4-5-4-5-4-5-4--8-7-8-7-8-7-8-7--10-9-10-9-10-9-10-9-]
D--6-5-6-5-6-5-6-5--5-4-5-4-5-4-5-4--8-7-8-7-8-7-8-7--10-9-10-9-10-9-10-9-]
PALM MUTED THIS TIME!!!!!! "father!(father!)"

E---------------------------------------------------]
B---------------------------------------------------] "fall into your
hands...."
G---------------------------------------------------]
D---------------------------------------------------]
A-------------------------00000000-33333333---------]
D---55555555-44444444-------------------------------]


why have you forsaken me?E---------------------------------------------------------------
B--------------------------------------------------------------
G---------------8-------------------------8-------------------
D---5--(ring)---8--(ring)----8------------8--(ring)-------
A---5-----------6------------8--(ring)----6---------------
D---5------------------------8-----------------------------







Chop Suey - System Of A Down akoru
Chop Suey - System Of A Down notaları,
Chop Suey - System Of A Down tablar bas tablar akord akor oku



iletisim  Reklam  Gizlilik sözlesmesi
Diger sitelerimize baktiniz mi ? Radyo Dinle - milli piyango sonuclari - 2017 yeni yil mesajlari - Güzel sözler Sohbet 2003- 2016 Canim.net Her hakki saklidir.