Güzel sözler | Fıkra | Hikaye | Şiir - Şair| Şarkı sözleri | Türküler | Sohbet odaları | Rüya | Sağlık | Biyografi | islam | Güzeller | Paylaş


Canim.net
Akorlar
Akor Ekle
Şarkı sözleri
Yabancı şarkı sözleri
Çeviriler
Türkü
A  B  C  Ç  D  E  F  G  Ğ  H  I  İ  J  K  L  M  N  O  Ö  P  R  S  Ş  T  U  Ü  V  Y  Z 



Chokehold Bass - Children of Bodom



F||------------------|------------------|------------------|------------------|
C||------------------|------------------|------------------|------------------|
G||------------------|------------------|------------------|------------------|
D||------------------|------------------|------------------|------------------|
A||------------------|------------------|------------------|------------------|




|-------------------------------|-------------------------------|
|*------------------------------|-------------------------------|
|-------------------------------|-------------------------1--1--|
|*--0-2-3--3-2--2--2-0--0-2-2-2-|--2-2-2-2-2-2-2-2--2-2-2-------|
|-------------------------------|-------------------------------|



------------------------------|--------------------------------||
------------------------------|-------------------------------*||
------------------------------|-------------------------5--7---||
--0-2-3--3-2--2--2-0--0-2-2-2-|--2-2-2-2-2-2-2-2--2-2-2-------*||
------------------------------|--------------------------------||



-------------------------------||-----------------------------------|
-------------------------------||*----------------------------------|
-------------------------5--7--||-----------------------------------|
--2-2-2-2-2-2-2-2--2-2-2-------||*--0-0-0-0-0-0-0-0-0-0-0-0-0-0-0-0-|
-------------------------------||-----------------------------------|



----------------------------------|----------------------------------|
----------------------------------|----------------------------------|
----------------------------------|----------------------------------|
--0-0-0-0-0-0-0-0-0-0-0-0-0-0-0-0-|--0-0-0-0-0-0-0-0-0-0-0-0-0-0-0-0-|
----------------------------------|----------------------------------|



---------------------------------------------||
---------9-7-----------------12-10----------*||
--10-9-7-----10-9-7-13-12-10-------13-12-10--||
--------------------------------------------*||
---------------------------------------------||



------------------------------------|--------------------|
---------9-7--------------7-5-------|--------------------|
--10-9-7-----10-9-7-9-7-5-----9-7-5-|-----------2--------|
------------------------------------|--3-----------------|
------------------------------------|--------------------|



------------------------------|--------------------|
------------------------------|--------------------|
----------7-5-----7-5---8-----|--4--------3--------|
--0-0-0-0-----0-0-----0-------|--------------------|
------------------------------|--------------------|



-------------------------------------|--------------------|
-------------------------------------|--------------------|
-------------------------------------|-----------2--------|
--0-0-0-0-12-10-0-10-8-0-8-7-0-7-5-3-|--3-----------------|
-------------------------------------|--------------------|



------------------------------|--------------------|
------------------------------|--------------------|
------------------------------|--4--------3--------|
--0-0-0-0---------------------|--------------------|
----------3-3-3-3-1-1-1-3-----|--------------------|



------------------------------------|----------------------------|
---------9-7--------------7-5-------|----------------------------|
--10-9-7-----10-9-7-9-7-5-----9-7-5-|--3------3--3--3------3--3--|
------------------------------------|-----0-0----------0-0-------|
------------------------------------|----------------------------|



-----------------------|----------------------------|-----------------------|
-----------------------|----------------------------|-----------------------|
-----------------------|--3------3--3--3------3--3--|-----------------------|
--0---0---0---0---0----|-----0-0----------0-0-------|--0---0---0---0---0----|
-----------------------|----------------------------|-----------------------|



----------------------------------|----------------------------|
----------------------------------|--7------5--8--7------5--8--|
----------------------------------|-----0-0----------0-0-------|
--1-1-1-1-1-1-1-1-1-1-1-1-1-1-1-1-|----------------------------|
----------------------------------|----------------------------|



----------------------------------|------------------------|
----------------------------------|------------------------|
----------------------------------|--7---7---7---7---------|
--1-1-1-1-1-1-1-1-----------------|------------------0--0--|
------------------4-4-4-4-4-4-4-4-|------------------------|



|---------------------------------|--------------------------------|
|*----------7--8------------------|----------3--2------------------|
|---0-0-0-0-------0-0-0-0-0-0-0-0-|--0-0-0-0-------0-0-0-0-0-0-0-0-|
|*--------------------------------|--------------------------------|
|---------------------------------|--------------------------------|



------------------------|-------------------------||
------------------------|------------------------*||
--3---3---3-------------|--0---0---0--------------||
-------------3---3---3--|-------------0---0---0--*||
------------------------|-------------------------||



-----------------------------------|----------------------------------|
*----------------------------------|----------------------------------|
-----------------------------------|----------------------------------|
*--0-0-0-0-0-0-0-0-0-0-0-0-0-0-0-0-|--0-0-0-0-0-0-0-0-0-0-0-0-0-0-0-0-|
-----------------------------------|----------------------------------|



----------------------------------|
----------------------------------|
----------------------------------|
--0-0-0-0-0-0-0-0-0-0-0-0-0-0-0-0-|
----------------------------------|



---------------------------------------------||
---------9-7-----------------12-10----------*||
--10-9-7-----10-9-7-13-12-10-------13-12-10--||
--------------------------------------------*||
---------------------------------------------||



------------------------------------|--------------------|
---------9-7--------------7-5-------|--------------------|
--10-9-7-----10-9-7-9-7-5-----9-7-5-|-----------2--------|
------------------------------------|--3-----------------|
------------------------------------|--------------------|



------------------------------|--------------------|
------------------------------|--------------------|
----------7-5-----7-5---8-----|--4--------3--------|
--0-0-0-0-----0-0-----0-------|--------------------|
------------------------------|--------------------|



-------------------------------------|--------------------|
-------------------------------------|--------------------|
-------------------------------------|-----------2--------|
--0-0-0-0-12-10-0-10-8-0-8-7-0-7-5-3-|--3-----------------|
-------------------------------------|--------------------|



------------------------------|--------------------|
------------------------------|--------------------|
------------------------------|--4--------3--------|
--0-0-0-0---------------------|--------------------|
----------3-3-3-3-1-1-1-3-----|--------------------|



----------------------------------|------------------------------------|
----------------------------------|------------------------------------|
----------------------------------|--3----3--3--3--3--5----5--5--5--5--|
--0----0--0--0--1--1--1--3--3--3--|------------------------------------|
----------------------------------|------------------------------------|



------------------------------------|------------------------------------|
------------------------------------|------------------------------------|
--7----7--7--7--7--7----7--7--7--7--|--3----3--3--3--3--5----5--5--5--5--|
------------------------------------|------------------------------------|
------------------------------------|------------------------------------|



--------------------------------------|------------------------------------|
--------------------------------------|------------------------------------|
--------------------------------------|--3----3--3--3--3--5----5--5--5--5--|
--0--0--0--0--0--0--0--0--0--0--0--0--|------------------------------------|
--------------------------------------|------------------------------------|



------------------------------------|---------------------------------|
------------------------------------|---------------------------------|
--7--7--7--7--7--7--7----10----9----|--10----9----7----9----7----5----|
------------------------------------|---------------------------------|
------------------------------------|---------------------------------|



-------------------|------------------------------------|
-------------------|------------------------------------|
-------------------|--3----3--3--3--3--5----5--5--5--5--|
--0----------------|------------------------------------|
-------------------|------------------------------------|



------------------------------------|------------------------------------|
------------------------------------|------------------------------------|
--7----7--7--7--7--7----7--7--7--7--|--3----3--3--3--3--5----5--5--5--5--|
------------------------------------|------------------------------------|
------------------------------------|------------------------------------|



--------------------------------------|------------------------------------|
--------------------------------------|------------------------------------|
--------------------------------------|--3----3--3--3--3--5----5--5--5--5--|
--0--0--0--0--0--0--0--0--0--0--0--0--|------------------------------------|
--------------------------------------|------------------------------------|



------------------------------------|------------------------------------|
------------------------------------|------------------------------------|
--7----7--7--7--7--7----7--7--7--7--|--3----3--3--3--3--5----5--5--5--5--|
------------------------------------|------------------------------------|
------------------------------------|------------------------------------|



-------------------|------------------|-------------------|-------------------|
-------------------|------------------|-------------------|-------------------|
-------------------|------------------|--5----------------|--------------3----|
--0----------------|------------------|-------------------|-------------------|
-------------------|------------------|-------------------|-------------------|



-------------------|-------------------|----------------------------------|
-------------------|-------------------|----------------------------------|
--5----------------|--5----------------|--5-5-5-5-3-3-3-3-5-5-5-5-3-3-3-3-|
-------------------|-------------------|----------------------------------|
-------------------|-------------------|----------------------------------|



-------------------------------|----------------------------------|
-------------------------------|----------------------------------|
--5-5-5-5-3-3-3-3-1-1-1-1-3----|--5-5-5-5-3-3-3-3-5-5-5-5-3-3-3-3-|
-------------------------------|----------------------------------|
-------------------------------|----------------------------------|



-------------------------------|----------------------------------|
-------------------------------|--5-5-5-5-3-3-3-3-5-5-5-5-3-3-3-3-|
--5-5-5-5-1-1-1-1---------3----|----------------------------------|
------------------1-1-1-1------|----------------------------------|
-------------------------------|----------------------------------|



-------------------------------|----------------------------------|
--5-5-5-5-3-3-3-3-1-1-1-1-3----|--5-5-5-5-3-3-3-3-5-5-5-5-3-3-3-3-|
-------------------------------|----------------------------------|
-------------------------------|----------------------------------|
-------------------------------|----------------------------------|



-------------------------------|------------------|------------------|
--5-5-5-5-1-1-1-1---------3----|------------------|------------------|
------------------1-1-1-1------|------------------|------------------|
-------------------------------|------------------|------------------|
-------------------------------|------------------|------------------|



|-----------------------------|----------------------------|
|*----------------------------|----------------------------|
|----------------2-2-2-2---2--|----------------------------|
|*--4-4-4-4---4---------------|--0-0-0-0---0--2-2-2-2---2--|
|-----------------------------|----------------------------|



----------------------------|-----------------------||
----------------------------|----------------------*||
---------------2-2-2-2---2--|--7----6----4----------||
--4-4-4-4---4---------------|-----------------2----*||
----------------------------|-----------------------||



-----------------------------|-------------------------------|
*----------------------------|-------------------------------|
-----------------------------|-------------------------------|
*--0-0-0-0---0--3-3-3-3---3--|-------------------------------|
-----------------------------|--0&1-1-1-0&1-1-1-1&3-3-3---3--|



----------------------------|-----------------------||----------------------|
----------------------------|----------------------*||----------------------|
----------------------------|--3----2---------------||--3----2--------------|
--0-0-0-0---0--3-3-3-3---3--|------------5---------*||------------5---------|
----------------------------|-----------------3-----||-----------------3----|



----------------------||-------------------|
----------------------||*------------------|
--3----2--------------||-------------------|
------------5---------||*------------------|
-----------------3----||-------------------|



-----------------------------------||----------------------------|
----------------------------------*||----------------------------|
----7-8---8-7---7---7-5---5-7------||--3------3--3--3------3--3--|
--0-----0-----0---0-----0-----0-0-*||-----0-0----------0-0-------|
-----------------------------------||----------------------------|



-----------------------|----------------------------|-----------------------|
-----------------------|----------------------------|-----------------------|
-----------------------|--3------3--3--3------3--3--|-----------------------|
--0---0---0---0---0----|-----0-0----------0-0-------|--0---0---0---0---0----|
-----------------------|----------------------------|-----------------------|



----------------------------------|----------------------------|
----------------------------------|--7------5--8--7------5--8--|
----------------------------------|-----0-0----------0-0-------|
--1-1-1-1-1-1-1-1-1-1-1-1-1-1-1-1-|----------------------------|
----------------------------------|----------------------------|



----------------------------------|------------------------|
----------------------------------|------------------------|
----------------------------------|--7---7---7---7---------|
--1-1-1-1-1-1-1-1-----------------|------------------0--0--|
------------------4-4-4-4-4-4-4-4-|------------------------|



|---------------------------------|--------------------------------|
|*----------7--8------------------|----------3--2------------------|
|---0-0-0-0-------0-0-0-0-0-0-0-0-|--0-0-0-0-------0-0-0-0-0-0-0-0-|
|*--------------------------------|--------------------------------|
|---------------------------------|--------------------------------|


3x
------------------------|-------------------------||------------------------|
------------------------|------------------------*||----------7--8----------|
--3---3---3-------------|--0---0---0--------------||--0-0-0-0---------------|
-------------3---3---3--|-------------0---0---0--*||------------------------|
------------------------|-------------------------||------------------------|



---------------------|----||
------3--2-----------|----||
------------0--------|----||
---------------------|----||
---------------------|----||




Chokehold Bass - Children of Bodom akoru
Chokehold Bass - Children of Bodom notaları,
Chokehold Bass - Children of Bodom tablar bas tablar akord akor oku



iletisim  Reklam  Gizlilik sözlesmesi
Diger sitelerimize baktiniz mi ? Radyo Dinle - milli piyango sonuclari - 2017 yeni yil mesajlari - Güzel sözler Sohbet 2003- 2016 Canim.net Her hakki saklidir.